  0
SECTION
  2
HEADER
  9
$ACADVER
  1
AC1014
  9
$ACADMAINTVER
 70
     9
  9
$DWGCODEPAGE
  3
ANSI_932
  9
$INSBASE
 10
0.0
 20
0.0
 30
0.0
  9
$EXTMIN
 10
-5600.072542929482
 20
-4210.489468405216
 30
0.0
  9
$EXTMAX
 10
5783.539147794388
 20
4054.363089267803
 30
0.0
  9
$LIMMIN
 10
-2520.0
 20
-1782.0
  9
$LIMMAX
 10
2520.0
 20
1782.0
  9
$ORTHOMODE
 70
     0
  9
$REGENMODE
 70
     1
  9
$FILLMODE
 70
     1
  9
$QTEXTMODE
 70
     0
  9
$MIRRTEXT
 70
     1
  9
$DRAGMODE
 70
     2
  9
$LTSCALE
 40
12.0
  9
$OSMODE
 70
    37
  9
$ATTMODE
 70
     1
  9
$TEXTSIZE
 40
0.2
  9
$TRACEWID
 40
0.05
  9
$TEXTSTYLE
  7
STANDARD
  9
$CLAYER
  8
0
  9
$CELTYPE
  6
BYLAYER
  9
$CECOLOR
 62
   256
  9
$CELTSCALE
 40
1.0
  9
$DELOBJ
 70
     1
  9
$DISPSILH
 70
     0
  9
$DIMSCALE
 40
1.0
  9
$DIMASZ
 40
30.0
  9
$DIMEXO
 40
0.0625
  9
$DIMDLI
 40
0.38
  9
$DIMRND
 40
0.0
  9
$DIMDLE
 40
0.0
  9
$DIMEXE
 40
0.18
  9
$DIMTP
 40
0.0
  9
$DIMTM
 40
0.0
  9
$DIMTXT
 40
0.18
  9
$DIMCEN
 40
0.09
  9
$DIMTSZ
 40
0.0
  9
$DIMTOL
 70
     0
  9
$DIMLIM
 70
     0
  9
$DIMTIH
 70
     1
  9
$DIMTOH
 70
     1
  9
$DIMSE1
 70
     0
  9
$DIMSE2
 70
     0
  9
$DIMTAD
 70
     3
  9
$DIMZIN
 70
     0
  9
$DIMBLK
  1

  9
$DIMASO
 70
     1
  9
$DIMSHO
 70
     1
  9
$DIMPOST
  1

  9
$DIMAPOST
  1

  9
$DIMALT
 70
     0
  9
$DIMALTD
 70
     2
  9
$DIMALTF
 40
25.4
  9
$DIMLFAC
 40
1.0
  9
$DIMTOFL
 70
     0
  9
$DIMTVP
 40
0.0
  9
$DIMTIX
 70
     0
  9
$DIMSOXD
 70
     0
  9
$DIMSAH
 70
     0
  9
$DIMBLK1
  1

  9
$DIMBLK2
  1

  9
$DIMSTYLE
  2
STANDARD
  9
$DIMCLRD
 70
     0
  9
$DIMCLRE
 70
     0
  9
$DIMCLRT
 70
     0
  9
$DIMTFAC
 40
1.0
  9
$DIMGAP
 40
0.09
  9
$DIMJUST
 70
     0
  9
$DIMSD1
 70
     0
  9
$DIMSD2
 70
     0
  9
$DIMTOLJ
 70
     1
  9
$DIMTZIN
 70
     0
  9
$DIMALTZ
 70
     0
  9
$DIMALTTZ
 70
     0
  9
$DIMFIT
 70
     3
  9
$DIMUPT
 70
     0
  9
$DIMUNIT
 70
     2
  9
$DIMDEC
 70
     4
  9
$DIMTDEC
 70
     4
  9
$DIMALTU
 70
     2
  9
$DIMALTTD
 70
     2
  9
$DIMTXSTY
  7
STANDARD
  9
$DIMAUNIT
 70
     0
  9
$LUNITS
 70
     2
  9
$LUPREC
 70
     4
  9
$SKETCHINC
 40
0.1
  9
$FILLETRAD
 40
0.5
  9
$AUNITS
 70
     0
  9
$AUPREC
 70
     0
  9
$MENU
  1
.
  9
$ELEVATION
 40
0.0
  9
$PELEVATION
 40
0.0
  9
$THICKNESS
 40
0.0
  9
$LIMCHECK
 70
     0
  9
$CHAMFERA
 40
0.5
  9
$CHAMFERB
 40
0.5
  9
$CHAMFERC
 40
1.0
  9
$CHAMFERD
 40
0.0
  9
$SKPOLY
 70
     0
  9
$TDCREATE
 40
2456475.657307037
  9
$TDUPDATE
 40
2456475.657307049
  9
$TDINDWG
 40
0.0000000116
  9
$TDUSRTIMER
 40
0.0000000116
  9
$USRTIMER
 70
     1
  9
$ANGBASE
 50
0.0
  9
$ANGDIR
 70
     0
  9
$PDMODE
 70
     0
  9
$PDSIZE
 40
1.0
  9
$PLINEWID
 40
0.0
  9
$COORDS
 70
     1
  9
$SPLFRAME
 70
     0
  9
$SPLINETYPE
 70
     6
  9
$SPLINESEGS
 70
     8
  9
$ATTDIA
 70
     0
  9
$ATTREQ
 70
     1
  9
$HANDLING
 70
     1
  9
$HANDSEED
  5
4CF
  9
$SURFTAB1
 70
     6
  9
$SURFTAB2
 70
     6
  9
$SURFTYPE
 70
     6
  9
$SURFU
 70
     6
  9
$SURFV
 70
     6
  9
$UCSNAME
  2

  9
$UCSORG
 10
0.0
 20
0.0
 30
0.0
  9
$UCSXDIR
 10
1.0
 20
0.0
 30
0.0
  9
$UCSYDIR
 10
0.0
 20
1.0
 30
0.0
  9
$PUCSNAME
  2

  9
$PUCSORG
 10
0.0
 20
0.0
 30
0.0
  9
$PUCSXDIR
 10
1.0
 20
0.0
 30
0.0
  9
$PUCSYDIR
 10
0.0
 20
1.0
 30
0.0
  9
$USERI1
 70
     0
  9
$USERI2
 70
     0
  9
$USERI3
 70
     0
  9
$USERI4
 70
     0
  9
$USERI5
 70
     0
  9
$USERR1
 40
0.0
  9
$USERR2
 40
0.0
  9
$USERR3
 40
0.0
  9
$USERR4
 40
0.0
  9
$USERR5
 40
0.0
  9
$WORLDVIEW
 70
     1
  9
$SHADEDGE
 70
     3
  9
$SHADEDIF
 70
    70
  9
$TILEMODE
 70
     1
  9
$MAXACTVP
 70
    64
  9
$PINSBASE
 10
0.0
 20
0.0
 30
0.0
  9
$PLIMCHECK
 70
     0
  9
$PEXTMIN
 10
1.000000000000000E+20
 20
1.000000000000000E+20
 30
1.000000000000000E+20
  9
$PEXTMAX
 10
-1.000000000000000E+20
 20
-1.000000000000000E+20
 30
-1.000000000000000E+20
  9
$PLIMMIN
 10
0.0
 20
0.0
  9
$PLIMMAX
 10
12.0
 20
9.0
  9
$UNITMODE
 70
     0
  9
$VISRETAIN
 70
     0
  9
$PLINEGEN
 70
     1
  9
$PSLTSCALE
 70
     0
  9
$TREEDEPTH
 70
  3020
  9
$PICKSTYLE
 70
     1
  9
$CMLSTYLE
  2
STANDARD
  9
$CMLJUST
 70
     0
  9
$CMLSCALE
 40
1.0
  9
$PROXYGRAPHICS
 70
     0
  9
$MEASUREMENT
 70
     1
  0
ENDSEC
  0
SECTION
  2
CLASSES
  0
CLASS
  1
ACDBDICTIONARYWDFLT
  2
AcDbDictionaryWithDefault
  3
ObjectDBX Classes
 90
        0
280
     0
281
     0
  0
CLASS
  1
XRECORD
  2
AcDbXrecord
  3
AutoCAD 2000
 90
        0
280
     0
281
     0
  0
CLASS
  1
LWPOLYLINE
  2
AcDbPolyline
  3
AutoCAD 2000
 90
        0
280
     0
281
     1
  0
CLASS
  1
HATCH
  2
AcDbHatch
  3
AutoCAD 2000
 90
        0
280
     0
281
     1
  0
CLASS
  1
ACDBPLACEHOLDER
  2
AcDbPlaceHolder
  3
ObjectDBX Classes
 90
        0
280
     0
281
     0
  0
CLASS
  1
LAYOUT
  2
AcDbLayout
  3
ObjectDBX Classes
 90
        0
280
     0
281
     0
  0
ENDSEC
  0
SECTION
  2
TABLES
  0
TABLE
  2
VPORT
  5
8
330
0
100
AcDbSymbolTable
 70
     1
  0
VPORT
  5
29
330
8
100
AcDbSymbolTableRecord
100
AcDbViewportTableRecord
  2
*ACTIVE
 70
     0
 10
0.0
 20
0.0
 11
1.0
 21
1.0
 12
0.0
 22
0.0
 13
0.0
 23
0.0
 14
0.5
 24
0.5
 15
0.5
 25
0.5
 16
0.0
 26
0.0
 36
1.0
 17
91.73330243245357
 27
122.5005015045135
 37
0.0
 40
2719.39775325978
 41
1.423266592835336
 42
50.0
 43
0.0
 44
0.0
 50
0.0
 51
0.0
 71
     0
 72
  1000
 73
     1
 74
     1
 75
     0
 76
     0
 77
     0
 78
     0
  0
ENDTAB
  0
TABLE
  2
LTYPE
  5
5
330
0
100
AcDbSymbolTable
 70
    28
  0
LTYPE
  5
14
330
5
100
AcDbSymbolTableRecord
100
AcDbLinetypeTableRecord
  2
BYBLOCK
 70
     0
  3

 72
    65
 73
     0
 40
0.0
  0
LTYPE
  5
15
330
5
100
AcDbSymbolTableRecord
100
AcDbLinetypeTableRecord
  2
BYLAYER
 70
     0
  3

 72
    65
 73
     0
 40
0.0
  0
LTYPE
  5
16
330
5
100
AcDbSymbolTableRecord
100
AcDbLinetypeTableRecord
  2
CONTINUOUS
 70
     0
  3
Solid line
 72
    65
 73
     0
 40
0.0
  0
LTYPE
  5
30
330
5
100
AcDbSymbolTableRecord
100
AcDbLinetypeTableRecord
  2
HIDDENX2
 70
     0
  3
CADPAC LINETYPE
 72
    65
 73
     2
 40
5.957873620862604
 49
4.468405215646953
 74
     0
 49
-1.489468405215651
 74
     0
  0
LTYPE
  5
31
330
5
100
AcDbSymbolTableRecord
100
AcDbLinetypeTableRecord
  2
HIDDEN
 70
     0
  3
CADPAC LINETYPE
 72
    65
 73
     2
 40
4.468405215646953
 49
2.978936810431302
 74
     0
 49
-1.489468405215651
 74
     0
  0
LTYPE
  5
32
330
5
100
AcDbSymbolTableRecord
100
AcDbLinetypeTableRecord
  2
HIDDEN2
 70
     0
  3
CADPAC LINETYPE
 72
    65
 73
     2
 40
3.723671013039128
 49
2.234202607823477
 74
     0
 49
-1.489468405215651
 74
     0
  0
LTYPE
  5
33
330
5
100
AcDbSymbolTableRecord
100
AcDbLinetypeTableRecord
  2
DASHED
 70
     0
  3
CADPAC LINETYPE
 72
    65
 73
     2
 40
4.170511534603861
 49
2.978936810431302
 74
     0
 49
-1.191574724172559
 74
     0
  0
LTYPE
  5
34
330
5
100
AcDbSymbolTableRecord
100
AcDbLinetypeTableRecord
  2
DASHED2
 70
     0
  3
CADPAC LINETYPE
 72
    65
 73
     2
 40
2.68104312938821
 49
1.787362086258781
 74
     0
 49
-0.8936810431294285
 74
     0
  0
LTYPE
  5
35
330
5
100
AcDbSymbolTableRecord
100
AcDbLinetypeTableRecord
  2
DASHEDX2
 70
     0
  3
CADPAC LINETYPE
 72
    65
 73
     2
 40
7.149448345035163
 49
5.957873620862604
 74
     0
 49
-1.191574724172559
 74
     0
  0
LTYPE
  5
36
330
5
100
AcDbSymbolTableRecord
100
AcDbLinetypeTableRecord
  2
DOTX2
 70
     0
  3
CADPAC LINETYPE
 72
    65
 73
     2
 40
2.606569709127389
 49
0.0
 74
     0
 49
-2.606569709127389
 74
     0
  0
LTYPE
  5
37
330
5
100
AcDbSymbolTableRecord
100
AcDbLinetypeTableRecord
  2
DOT
 70
     0
  3
CADPAC LINETYPE
 72
    65
 73
     2
 40
2.085255767301911
 49
0.0
 74
     0
 49
-2.085255767301911
 74
     0
  0
LTYPE
  5
38
330
5
100
AcDbSymbolTableRecord
100
AcDbLinetypeTableRecord
  2
DOT2
 70
     0
  3
CADPAC LINETYPE
 72
    65
 73
     2
 40
1.563941825476434
 49
0.0
 74
     0
 49
-1.563941825476434
 74
     0
  0
LTYPE
  5
39
330
5
100
AcDbSymbolTableRecord
100
AcDbLinetypeTableRecord
  2
CENTERX2
 70
     0
  3
CADPAC LINETYPE
 72
    65
 73
     4
 40
8.936810431293907
 49
3.723671013039128
 74
     0
 49
-1.861835506519564
 74
     0
 49
1.489468405215651
 74
     0
 49
-1.861835506519564
 74
     0
  0
LTYPE
  5
3A
330
5
100
AcDbSymbolTableRecord
100
AcDbLinetypeTableRecord
  2
CENTER
 70
     0
  3
CADPAC LINETYPE
 72
    65
 73
     4
 40
6.851554663991995
 49
2.978936810431302
 74
     0
 49
-1.489468405215651
 74
     0
 49
0.8936810431293906
 74
     0
 49
-1.489468405215651
 74
     0
  0
LTYPE
  5
3B
330
5
100
AcDbSymbolTableRecord
100
AcDbLinetypeTableRecord
  2
CENTER2
 70
     0
  3
CADPAC LINETYPE
 72
    65
 73
     4
 40
4.766298896690084
 49
2.234202607823477
 74
     0
 49
-1.117101303911738
 74
     0
 49
0.2978936810431302
 74
     0
 49
-1.117101303911738
 74
     0
  0
LTYPE
  5
3C
330
5
100
AcDbSymbolTableRecord
100
AcDbLinetypeTableRecord
  2
DASHDOTX2
 70
     0
  3
CADPAC LINETYPE
 72
    65
 73
     4
 40
14.29889669007025
 49
7.149448345035125
 74
     0
 49
-2.383149448345042
 74
     0
 49
2.383149448345042
 74
     0
 49
-2.383149448345042
 74
     0
  0
LTYPE
  5
3D
330
5
100
AcDbSymbolTableRecord
100
AcDbLinetypeTableRecord
  2
DASHDOT
 70
     0
  3
CADPAC LINETYPE
 72
    65
 73
     4
 40
7.149448345035239
 49
3.574724172517563
 74
     0
 49
-1.191574724172559
 74
     0
 49
1.191574724172559
 74
     0
 49
-1.191574724172559
 74
     0
  0
LTYPE
  5
3E
330
5
100
AcDbSymbolTableRecord
100
AcDbLinetypeTableRecord
  2
DASHDOT2
 70
     0
  3
CADPAC LINETYPE
 72
    65
 73
     4
 40
4.587562688064266
 49
2.681043129388172
 74
     0
 49
-0.8936810431294191
 74
     0
 49
0.1191574724172559
 74
     0
 49
-0.8936810431294191
 74
     0
  0
LTYPE
  5
3F
330
5
100
AcDbSymbolTableRecord
100
AcDbLinetypeTableRecord
  2
DIVIDEX2
 70
     0
  3
CADPAC LINETYPE
 72
    65
 73
     6
 40
19.06519558676033
 49
7.149448345035125
 74
     0
 49
-2.383149448345042
 74
     0
 49
2.383149448345042
 74
     0
 49
-2.383149448345042
 74
     0
 49
2.383149448345042
 74
     0
 49
-2.383149448345042
 74
     0
  0
LTYPE
  5
40
330
5
100
AcDbSymbolTableRecord
100
AcDbLinetypeTableRecord
  2
DIVIDE
 70
     0
  3
CADPAC LINETYPE
 72
    65
 73
     6
 40
9.532597793380356
 49
3.574724172517563
 74
     0
 49
-1.191574724172559
 74
     0
 49
1.191574724172559
 74
     0
 49
-1.191574724172559
 74
     0
 49
1.191574724172559
 74
     0
 49
-1.191574724172559
 74
     0
  0
LTYPE
  5
41
330
5
100
AcDbSymbolTableRecord
100
AcDbLinetypeTableRecord
  2
DIVIDE2
 70
     0
  3
CADPAC LINETYPE
 72
    65
 73
     6
 40
7.149448345035268
 49
2.681043129388172
 74
     0
 49
-0.8936810431294191
 74
     0
 49
0.8936810431294191
 74
     0
 49
-0.8936810431294191
 74
     0
 49
0.8936810431294191
 74
     0
 49
-0.8936810431294191
 74
     0
  0
LTYPE
  5
42
330
5
100
AcDbSymbolTableRecord
100
AcDbLinetypeTableRecord
  2
BORDERX2
 70
     0
  3
CADPAC LINETYPE
 72
    65
 73
     6
 40
13.03284854563695
 49
3.723671013039128
 74
     0
 49
-1.861835506519564
 74
     0
 49
3.723671013039128
 74
     0
 49
-1.861835506519564
 74
     0
 49
0.0
 74
     0
 49
-1.861835506519564
 74
     0
  0
LTYPE
  5
43
330
5
100
AcDbSymbolTableRecord
100
AcDbLinetypeTableRecord
  2
BORDER
 70
     0
  3
CADPAC LINETYPE
 72
    65
 73
     6
 40
10.42627883650956
 49
2.978936810431302
 74
     0
 49
-1.489468405215651
 74
     0
 49
2.978936810431302
 74
     0
 49
-1.489468405215651
 74
     0
 49
0.0
 74
     0
 49
-1.489468405215651
 74
     0
  0
LTYPE
  5
44
330
5
100
AcDbSymbolTableRecord
100
AcDbLinetypeTableRecord
  2
BORDER2
 70
     0
  3
CADPAC LINETYPE
 72
    65
 73
     6
 40
7.745235707121499
 49
2.383149448345042
 74
     0
 49
-1.489468405215689
 74
     0
 49
0.8936810431294285
 74
     0
 49
-1.489468405215689
 74
     0
 49
0.0
 74
     0
 49
-1.489468405215651
 74
     0
  0
LTYPE
  5
45
330
5
100
AcDbSymbolTableRecord
100
AcDbLinetypeTableRecord
  2
PHANTOMX2
 70
     0
  3
CADPAC LINETYPE
 72
    65
 73
     6
 40
11.17101303911738
 49
3.723671013039128
 74
     0
 49
-1.489468405215651
 74
     0
 49
1.489468405215651
 74
     0
 49
-1.489468405215651
 74
     0
 49
1.489468405215651
 74
     0
 49
-1.489468405215651
 74
     0
  0
LTYPE
  5
46
330
5
100
AcDbSymbolTableRecord
100
AcDbLinetypeTableRecord
  2
PHANTOM
 70
     0
  3
CADPAC LINETYPE
 72
    65
 73
     6
 40
9.234704112337036
 49
2.978936810431302
 74
     0
 49
-1.489468405215651
 74
     0
 49
0.8936810431293906
 74
     0
 49
-1.489468405215651
 74
     0
 49
0.8936810431293906
 74
     0
 49
-1.489468405215651
 74
     0
  0
LTYPE
  5
47
330
5
100
AcDbSymbolTableRecord
100
AcDbLinetypeTableRecord
  2
PHANTOM2
 70
     0
  3
CADPAC LINETYPE
 72
    65
 73
     6
 40
7.89418254764295
 49
2.234202607823477
 74
     0
 49
-1.489468405215651
 74
     0
 49
0.5957873620862605
 74
     0
 49
-1.489468405215651
 74
     0
 49
0.5957873620862605
 74
     0
 49
-1.489468405215651
 74
     0
  0
LTYPE
  5
48
330
5
100
AcDbSymbolTableRecord
100
AcDbLinetypeTableRecord
  2
ACAD_ISO06W100
 70
     0
  3
CADPAC LINETYPE
 72
    65
 73
     8
 40
15.78836509528617
 49
7.149448345035125
 74
     0
 49
-1.489468405215689
 74
     0
 49
0.8936810431294285
 74
     0
 49
-1.489468405215689
 74
     0
 49
0.8936810431294285
 74
     0
 49
-1.489468405215689
 74
     0
 49
0.8936810431294285
 74
     0
 49
-1.489468405215689
 74
     0
  0
LTYPE
  5
49
330
5
100
AcDbSymbolTableRecord
100
AcDbLinetypeTableRecord
  2
ACAD_ISO13W100
 70
     0
  3
CADPAC LINETYPE
 72
    65
 73
     8
 40
11.91574724172521
 49
2.978936810431302
 74
     0
 49
-1.489468405215651
 74
     0
 49
2.978936810431302
 74
     0
 49
-1.489468405215651
 74
     0
 49
0.0
 74
     0
 49
-1.489468405215651
 74
     0
 49
0.0
 74
     0
 49
-1.489468405215651
 74
     0
  0
LTYPE
  5
4A
330
5
100
AcDbSymbolTableRecord
100
AcDbLinetypeTableRecord
  2
ACAD_ISO14W100
 70
     0
  3
CADPAC LINETYPE
 72
    65
 73
     8
 40
8.936810431293907
 49
2.978936810431302
 74
     0
 49
-1.489468405215651
 74
     0
 49
0.0
 74
     0
 49
-1.489468405215651
 74
     0
 49
0.0
 74
     0
 49
-1.489468405215651
 74
     0
 49
0.0
 74
     0
 49
-1.489468405215651
 74
     0
  0
ENDTAB
  0
TABLE
  2
LAYER
  5
2
330
0
100
AcDbSymbolTable
 70
     5
  0
LAYER
  5
10
330
2
100
AcDbSymbolTableRecord
100
AcDbLayerTableRecord
  2
0
 70
     0
 62
     7
  6
CONTINUOUS
  0
LAYER
  5
2B
330
2
100
AcDbSymbolTableRecord
100
AcDbLayerTableRecord
  2
LAYER0001
 70
     0
 62
     7
  6
CONTINUOUS
  0
LAYER
  5
2C
330
2
100
AcDbSymbolTableRecord
100
AcDbLayerTableRecord
  2
LAYER0016
 70
     0
 62
     7
  6
CONTINUOUS
  0
LAYER
  5
2D
330
2
100
AcDbSymbolTableRecord
100
AcDbLayerTableRecord
  2
LAYER0032
 70
     0
 62
     7
  6
CONTINUOUS
  0
LAYER
  5
2E
330
2
100
AcDbSymbolTableRecord
100
AcDbLayerTableRecord
  2
LAYER0240
 70
     0
 62
     7
  6
CONTINUOUS
  0
ENDTAB
  0
TABLE
  2
STYLE
  5
3
330
0
100
AcDbSymbolTable
 70
     3
  0
STYLE
  5
11
330
3
100
AcDbSymbolTableRecord
100
AcDbTextStyleTableRecord
  2
STANDARD
 70
     0
 40
0.0
 41
1.0
 50
0.0
 71
     0
 42
0.2
  3
txt
  4

  0
STYLE
  5
BD
330
3
100
AcDbSymbolTableRecord
100
AcDbTextStyleTableRecord
  2
FDASTYLE0
 70
     0
 40
120.0
 41
0.9316770186335404
 50
0.0
 71
     0
 42
0.2
  3
MSMINCHO.TTC
  4

1001
ACAD
1000
ＭＳ 明朝
1071
    32802
  0
STYLE
  5
132
330
3
100
AcDbSymbolTableRecord
100
AcDbTextStyleTableRecord
  2
FDASTYLE1
 70
     0
 40
42.0
 41
0.8000000000000005
 50
0.0
 71
     0
 42
0.2
  3
txt.shx
  4
bigfont
  0
ENDTAB
  0
TABLE
  2
VIEW
  5
6
330
0
100
AcDbSymbolTable
 70
     0
  0
ENDTAB
  0
TABLE
  2
UCS
  5
7
330
0
100
AcDbSymbolTable
 70
     0
  0
ENDTAB
  0
TABLE
  2
APPID
  5
9
330
0
100
AcDbSymbolTable
 70
     2
  0
APPID
  5
12
330
9
100
AcDbSymbolTableRecord
100
AcDbRegAppTableRecord
  2
ACAD
 70
     0
  0
APPID
  5
2A
330
9
100
AcDbSymbolTableRecord
100
AcDbRegAppTableRecord
  2
DAFUSIONOUT
 70
     0
  0
ENDTAB
  0
TABLE
  2
DIMSTYLE
  5
A
330
0
100
AcDbSymbolTable
 70
     1
  0
DIMSTYLE
105
27
330
A
100
AcDbSymbolTableRecord
100
AcDbDimStyleTableRecord
  2
STANDARD
 70
     0
  3

  4

  5

  6

  7

 40
1.0
 41
0.18
 42
0.0625
 43
0.38
 44
0.18
 45
0.0
 46
0.0
 47
0.0
 48
0.0
140
0.18
141
0.09
142
0.0
143
25.4
144
1.0
145
0.0
146
1.0
147
0.09
 71
     0
 72
     0
 73
     1
 74
     1
 75
     0
 76
     0
 77
     0
 78
     0
170
     0
171
     2
172
     0
173
     0
174
     0
175
     0
176
     0
177
     0
178
     0
270
     2
271
     4
272
     4
273
     2
274
     2
340
11
275
     0
280
     0
281
     0
282
     0
283
     1
284
     0
285
     0
286
     0
287
     3
288
     0
  0
ENDTAB
  0
TABLE
  2
BLOCK_RECORD
  5
1
330
0
100
AcDbSymbolTable
 70
    40
  0
BLOCK_RECORD
  5
1F
330
1
100
AcDbSymbolTableRecord
100
AcDbBlockTableRecord
  2
*MODEL_SPACE
  0
BLOCK_RECORD
  5
1B
330
1
100
AcDbSymbolTableRecord
100
AcDbBlockTableRecord
  2
*PAPER_SPACE
  0
BLOCK_RECORD
  5
4B
330
1
100
AcDbSymbolTableRecord
100
AcDbBlockTableRecord
  2
DC_GROUP_1
  0
BLOCK_RECORD
  5
4E
330
1
100
AcDbSymbolTableRecord
100
AcDbBlockTableRecord
  2
DC_GROUP_2
  0
BLOCK_RECORD
  5
51
330
1
100
AcDbSymbolTableRecord
100
AcDbBlockTableRecord
  2
DC_GROUP_3
  0
BLOCK_RECORD
  5
54
330
1
100
AcDbSymbolTableRecord
100
AcDbBlockTableRecord
  2
DC_GROUP_4
  0
BLOCK_RECORD
  5
57
330
1
100
AcDbSymbolTableRecord
100
AcDbBlockTableRecord
  2
DC_GROUP_5
  0
BLOCK_RECORD
  5
5A
330
1
100
AcDbSymbolTableRecord
100
AcDbBlockTableRecord
  2
DC_GROUP_6
  0
BLOCK_RECORD
  5
5D
330
1
100
AcDbSymbolTableRecord
100
AcDbBlockTableRecord
  2
DC_GROUP_7
  0
BLOCK_RECORD
  5
60
330
1
100
AcDbSymbolTableRecord
100
AcDbBlockTableRecord
  2
DC_GROUP_8
  0
BLOCK_RECORD
  5
63
330
1
100
AcDbSymbolTableRecord
100
AcDbBlockTableRecord
  2
DC_GROUP_9
  0
BLOCK_RECORD
  5
66
330
1
100
AcDbSymbolTableRecord
100
AcDbBlockTableRecord
  2
DC_GROUP_10
  0
BLOCK_RECORD
  5
69
330
1
100
AcDbSymbolTableRecord
100
AcDbBlockTableRecord
  2
DC_GROUP_11
  0
BLOCK_RECORD
  5
6C
330
1
100
AcDbSymbolTableRecord
100
AcDbBlockTableRecord
  2
DA_IMAGEDIMGROUP_1
  0
BLOCK_RECORD
  5
6F
330
1
100
AcDbSymbolTableRecord
100
AcDbBlockTableRecord
  2
DA_IMAGEDIMGROUP_2
  0
BLOCK_RECORD
  5
72
330
1
100
AcDbSymbolTableRecord
100
AcDbBlockTableRecord
  2
DA_IMAGEDIMGROUP_3
  0
BLOCK_RECORD
  5
75
330
1
100
AcDbSymbolTableRecord
100
AcDbBlockTableRecord
  2
DA_IMAGEDIMGROUP_4
  0
BLOCK_RECORD
  5
78
330
1
100
AcDbSymbolTableRecord
100
AcDbBlockTableRecord
  2
DC_GROUP_12
  0
BLOCK_RECORD
  5
7B
330
1
100
AcDbSymbolTableRecord
100
AcDbBlockTableRecord
  2
DC_GROUP_13
  0
BLOCK_RECORD
  5
7E
330
1
100
AcDbSymbolTableRecord
100
AcDbBlockTableRecord
  2
DC_GROUP_14
  0
BLOCK_RECORD
  5
81
330
1
100
AcDbSymbolTableRecord
100
AcDbBlockTableRecord
  2
DC_GROUP_15
  0
BLOCK_RECORD
  5
84
330
1
100
AcDbSymbolTableRecord
100
AcDbBlockTableRecord
  2
DA_IMAGEDIMGROUP_5
  0
BLOCK_RECORD
  5
87
330
1
100
AcDbSymbolTableRecord
100
AcDbBlockTableRecord
  2
DA_IMAGEDIMGROUP_6
  0
BLOCK_RECORD
  5
8A
330
1
100
AcDbSymbolTableRecord
100
AcDbBlockTableRecord
  2
DA_IMAGEDIMGROUP_7
  0
BLOCK_RECORD
  5
8D
330
1
100
AcDbSymbolTableRecord
100
AcDbBlockTableRecord
  2
DA_IMAGEDIMGROUP_8
  0
BLOCK_RECORD
  5
90
330
1
100
AcDbSymbolTableRecord
100
AcDbBlockTableRecord
  2
DA_IMAGEDIMGROUP_9
  0
BLOCK_RECORD
  5
93
330
1
100
AcDbSymbolTableRecord
100
AcDbBlockTableRecord
  2
DC_GROUP_16
  0
BLOCK_RECORD
  5
96
330
1
100
AcDbSymbolTableRecord
100
AcDbBlockTableRecord
  2
DC_GROUP_17
  0
BLOCK_RECORD
  5
99
330
1
100
AcDbSymbolTableRecord
100
AcDbBlockTableRecord
  2
DC_GROUP_18
  0
BLOCK_RECORD
  5
9C
330
1
100
AcDbSymbolTableRecord
100
AcDbBlockTableRecord
  2
DC_GROUP_19
  0
BLOCK_RECORD
  5
9F
330
1
100
AcDbSymbolTableRecord
100
AcDbBlockTableRecord
  2
DC_GROUP_20
  0
BLOCK_RECORD
  5
A2
330
1
100
AcDbSymbolTableRecord
100
AcDbBlockTableRecord
  2
DC_GROUP_21
  0
BLOCK_RECORD
  5
A5
330
1
100
AcDbSymbolTableRecord
100
AcDbBlockTableRecord
  2
DC_GROUP_22
  0
BLOCK_RECORD
  5
A8
330
1
100
AcDbSymbolTableRecord
100
AcDbBlockTableRecord
  2
DC_GROUP_23
  0
BLOCK_RECORD
  5
AB
330
1
100
AcDbSymbolTableRecord
100
AcDbBlockTableRecord
  2
DC_GROUP_24
  0
BLOCK_RECORD
  5
AE
330
1
100
AcDbSymbolTableRecord
100
AcDbBlockTableRecord
  2
DA_IMAGEDIMGROUP_10
  0
BLOCK_RECORD
  5
B1
330
1
100
AcDbSymbolTableRecord
100
AcDbBlockTableRecord
  2
DA_IMAGEDIMGROUP_11
  0
BLOCK_RECORD
  5
B4
330
1
100
AcDbSymbolTableRecord
100
AcDbBlockTableRecord
  2
DC_GROUP_25
  0
BLOCK_RECORD
  5
B7
330
1
100
AcDbSymbolTableRecord
100
AcDbBlockTableRecord
  2
DC_GROUP_26
  0
BLOCK_RECORD
  5
BA
330
1
100
AcDbSymbolTableRecord
100
AcDbBlockTableRecord
  2
DA_IMAGEDIMGROUP_12
  0
BLOCK_RECORD
  5
124
330
1
100
AcDbSymbolTableRecord
100
AcDbBlockTableRecord
  2
_OPEN30
  0
ENDTAB
  0
ENDSEC
  0
SECTION
  2
BLOCKS
  0
BLOCK
  5
20
330
1F
100
AcDbEntity
  8
0
100
AcDbBlockBegin
  2
*MODEL_SPACE
 70
     0
 71
     0
 10
0.0
 20
0.0
 30
0.0
  3
*MODEL_SPACE
  1

  0
ENDBLK
  5
21
330
1F
100
AcDbEntity
  8
0
100
AcDbBlockEnd
  0
BLOCK
  5
1C
330
1B
100
AcDbEntity
 67
     1
  8
0
100
AcDbBlockBegin
  2
*PAPER_SPACE
 70
     0
 71
     0
 10
0.0
 20
0.0
 30
0.0
  3
*PAPER_SPACE
  1

  0
ENDBLK
  5
1D
330
1B
100
AcDbEntity
 67
     1
  8
0
100
AcDbBlockEnd
  0
BLOCK
  5
4C
330
4B
100
AcDbEntity
  8
0
100
AcDbBlockBegin
  2
DC_GROUP_1
 70
     0
 71
     0
 10
0.0
 20
0.0
 30
0.0
  3
DC_GROUP_1
  1

  0
TEXT
  5
BE
330
4B
100
AcDbEntity
  8
0
 62
     3
100
AcDbText
 10
1125.635111876076
 20
490.3580034423408
 30
0.0
 40
120.0
  1
ＡＥ-1510
 41
0.8600153727901615
  7
FDASTYLE0
 72
     5
 11
1797.635111876076
 21
490.3580034423408
 31
0.0
100
AcDbText
  0
LINE
  5
BF
330
4B
100
AcDbEntity
  8
0
 62
     3
100
AcDbLine
 10
1113.635111876076
 20
478.3580034423408
 30
0.0
 11
1809.635111876076
 21
478.3580034423408
 31
0.0
  0
LINE
  5
C0
330
4B
100
AcDbEntity
  8
0
 62
     3
100
AcDbLine
 10
1809.635111876076
 20
478.3580034423408
 30
0.0
 11
1809.635111876076
 21
622.3580034423408
 31
0.0
  0
LINE
  5
C1
330
4B
100
AcDbEntity
  8
0
 62
     3
100
AcDbLine
 10
1113.635111876076
 20
622.3580034423408
 30
0.0
 11
1809.635111876076
 21
622.3580034423408
 31
0.0
  0
LINE
  5
C2
330
4B
100
AcDbEntity
  8
0
 62
     3
100
AcDbLine
 10
1113.635111876076
 20
478.3580034423408
 30
0.0
 11
1113.635111876076
 21
622.3580034423408
 31
0.0
  0
ENDBLK
  5
4D
330
4B
100
AcDbEntity
  8
0
100
AcDbBlockEnd
  0
BLOCK
  5
4F
330
4E
100
AcDbEntity
  8
0
100
AcDbBlockBegin
  2
DC_GROUP_2
 70
     0
 71
     0
 10
0.0
 20
0.0
 30
0.0
  3
DC_GROUP_2
  1

  0
LINE
  5
C3
330
4E
100
AcDbEntity
  8
LAYER0032
 62
     3
100
AcDbLine
 10
-1003.058918360212
 20
-285.979007938524
 30
0.0
 11
-1003.058918360212
 21
-288.8037302635509
 31
0.0
  0
LINE
  5
C4
330
4E
100
AcDbEntity
  8
LAYER0032
 62
     3
100
AcDbLine
 10
-1001.038192418048
 20
-288.8037302635509
 30
0.0
 11
-1001.038192418048
 21
-285.979007938524
 31
0.0
  0
LINE
  5
C5
330
4E
100
AcDbEntity
  8
LAYER0032
 62
     3
100
AcDbLine
 10
-1002.04855538913
 20
-289.1790079385241
 30
0.0
 11
-995.9692813312936
 21
-289.1790079385243
 31
0.0
  0
LINE
  5
C6
330
4E
100
AcDbEntity
  8
LAYER0032
 62
     3
100
AcDbLine
 10
-994.9589183602116
 20
-285.9790079385243
 30
0.0
 11
-994.9589183602116
 21
-288.8037302635511
 31
0.0
  0
LINE
  5
C7
330
4E
100
AcDbEntity
  8
LAYER0032
 62
     3
100
AcDbLine
 10
-996.9796443023756
 20
-285.9790079385243
 30
0.0
 11
-996.9796443023756
 21
-288.8037302635511
 31
0.0
  0
ARC
  5
C8
330
4E
100
AcDbEntity
  8
LAYER0032
 62
     3
100
AcDbCircle
 10
-1002.04855538913
 20
-287.6312651015043
 30
0.0
 40
1.547742837019889
100
AcDbArc
 50
229.2471295723266
 51
310.7528704276733
  0
ARC
  5
C9
330
4E
100
AcDbEntity
  8
LAYER0032
 62
     3
100
AcDbCircle
 10
-995.9692813312936
 20
-287.6312651015045
 30
0.0
 40
1.547742837019889
100
AcDbArc
 50
229.2471295723266
 51
310.7528704276733
  0
ARC
  5
CA
330
4E
100
AcDbEntity
  8
LAYER0032
 62
     3
100
AcDbCircle
 10
-999.0089183602117
 20
-283.5048274327905
 30
0.0
 40
5.674180505733874
100
AcDbArc
 50
249.0451000818411
 51
290.9548999181588
  0
ENDBLK
  5
50
330
4E
100
AcDbEntity
  8
0
100
AcDbBlockEnd
  0
BLOCK
  5
52
330
51
100
AcDbEntity
  8
0
100
AcDbBlockBegin
  2
DC_GROUP_3
 70
     0
 71
     0
 10
0.0
 20
0.0
 30
0.0
  3
DC_GROUP_3
  1

  0
LINE
  5
CB
330
51
100
AcDbEntity
  8
LAYER0032
 62
     3
100
AcDbLine
 10
-1003.058918360212
 20
-308.4790079385237
 30
0.0
 11
-1003.058918360212
 21
-306.0542856134969
 31
0.0
  0
LINE
  5
CC
330
51
100
AcDbEntity
  8
LAYER0032
 62
     3
100
AcDbLine
 10
-1001.038192418048
 20
-308.4790079385237
 30
0.0
 11
-1001.038192418048
 21
-306.0542856134969
 31
0.0
  0
LINE
  5
CD
330
51
100
AcDbEntity
  8
LAYER0032
 62
     3
100
AcDbLine
 10
-1003.058918360212
 20
-308.4790079385237
 30
0.0
 11
-994.9589183602116
 21
-308.4790079385239
 31
0.0
  0
LINE
  5
CE
330
51
100
AcDbEntity
  8
LAYER0032
 62
     3
100
AcDbLine
 10
-1002.04855538913
 20
-305.6790079385237
 30
0.0
 11
-995.9692813312936
 21
-305.679007938524
 31
0.0
  0
LINE
  5
CF
330
51
100
AcDbEntity
  8
LAYER0032
 62
     3
100
AcDbLine
 10
-994.9589183602116
 20
-308.4790079385239
 30
0.0
 11
-994.9589183602116
 21
-306.0542856134971
 31
0.0
  0
LINE
  5
D0
330
51
100
AcDbEntity
  8
LAYER0032
 62
     3
100
AcDbLine
 10
-996.9796443023756
 20
-308.4790079385239
 30
0.0
 11
-996.9796443023756
 21
-306.0542856134971
 31
0.0
  0
ARC
  5
D1
330
51
100
AcDbEntity
  8
LAYER0032
 62
     3
100
AcDbCircle
 10
-1002.04855538913
 20
-307.2267507755435
 30
0.0
 40
1.54774283701983
100
AcDbArc
 50
49.24712957232752
 51
130.7528704276724
  0
ARC
  5
D2
330
51
100
AcDbEntity
  8
LAYER0032
 62
     3
100
AcDbCircle
 10
-995.9692813312936
 20
-307.2267507755437
 30
0.0
 40
1.54774283701983
100
AcDbArc
 50
49.24712957232752
 51
130.7528704276724
  0
ARC
  5
D3
330
51
100
AcDbEntity
  8
LAYER0032
 62
     3
100
AcDbCircle
 10
-999.0089183602117
 20
-311.3531884442578
 30
0.0
 40
5.67418050573392
100
AcDbArc
 50
69.04510008184064
 51
110.9548999181592
  0
LINE
  5
D4
330
51
100
AcDbEntity
  8
LAYER0032
 62
     3
100
AcDbLine
 10
-995.2089183602116
 20
-309.4790079385239
 30
0.0
 11
-995.2089183602116
 21
-308.4790079385239
 31
0.0
  0
LINE
  5
D5
330
51
100
AcDbEntity
  8
LAYER0032
 62
     3
100
AcDbLine
 10
-1002.808918360212
 20
-309.4790079385237
 30
0.0
 11
-1002.808918360212
 21
-308.4790079385237
 31
0.0
  0
ENDBLK
  5
53
330
51
100
AcDbEntity
  8
0
100
AcDbBlockEnd
  0
BLOCK
  5
55
330
54
100
AcDbEntity
  8
0
100
AcDbBlockBegin
  2
DC_GROUP_4
 70
     0
 71
     0
 10
0.0
 20
0.0
 30
0.0
  3
DC_GROUP_4
  1

  0
LINE
  5
D6
330
54
100
AcDbEntity
  8
LAYER0032
 62
     3
100
AcDbLine
 10
-994.9589183602116
 20
-313.4790079385239
 30
0.0
 11
-994.9589183602116
 21
-315.9037302635507
 31
0.0
  0
LINE
  5
D7
330
54
100
AcDbEntity
  8
LAYER0032
 62
     3
100
AcDbLine
 10
-996.9796443023756
 20
-313.4790079385239
 30
0.0
 11
-996.9796443023756
 21
-315.9037302635507
 31
0.0
  0
LINE
  5
D8
330
54
100
AcDbEntity
  8
LAYER0032
 62
     3
100
AcDbLine
 10
-994.9589183602116
 20
-313.4790079385239
 30
0.0
 11
-1003.058918360212
 21
-313.4790079385237
 31
0.0
  0
LINE
  5
D9
330
54
100
AcDbEntity
  8
LAYER0032
 62
     3
100
AcDbLine
 10
-995.9692813312936
 20
-316.2790079385239
 30
0.0
 11
-1002.04855538913
 21
-316.2790079385237
 31
0.0
  0
LINE
  5
DA
330
54
100
AcDbEntity
  8
LAYER0032
 62
     3
100
AcDbLine
 10
-1003.058918360212
 20
-313.4790079385237
 30
0.0
 11
-1003.058918360212
 21
-315.9037302635505
 31
0.0
  0
LINE
  5
DB
330
54
100
AcDbEntity
  8
LAYER0032
 62
     3
100
AcDbLine
 10
-1001.038192418048
 20
-313.4790079385237
 30
0.0
 11
-1001.038192418048
 21
-315.9037302635505
 31
0.0
  0
ARC
  5
DC
330
54
100
AcDbEntity
  8
LAYER0032
 62
     3
100
AcDbCircle
 10
-995.9692813312936
 20
-314.7312651015041
 30
0.0
 40
1.54774283701983
100
AcDbArc
 50
229.2471295723275
 51
310.7528704276724
  0
ARC
  5
DD
330
54
100
AcDbEntity
  8
LAYER0032
 62
     3
100
AcDbCircle
 10
-1002.04855538913
 20
-314.7312651015039
 30
0.0
 40
1.54774283701983
100
AcDbArc
 50
229.2471295723275
 51
310.7528704276724
  0
ARC
  5
DE
330
54
100
AcDbEntity
  8
LAYER0032
 62
     3
100
AcDbCircle
 10
-999.0089183602117
 20
-310.6048274327901
 30
0.0
 40
5.67418050573392
100
AcDbArc
 50
249.0451000818406
 51
290.9548999181592
  0
LINE
  5
DF
330
54
100
AcDbEntity
  8
LAYER0032
 62
     3
100
AcDbLine
 10
-1002.808918360212
 20
-312.4790079385237
 30
0.0
 11
-1002.808918360212
 21
-313.4790079385237
 31
0.0
  0
LINE
  5
E0
330
54
100
AcDbEntity
  8
LAYER0032
 62
     3
100
AcDbLine
 10
-995.2089183602116
 20
-312.4790079385239
 30
0.0
 11
-995.2089183602116
 21
-313.4790079385239
 31
0.0
  0
ENDBLK
  5
56
330
54
100
AcDbEntity
  8
0
100
AcDbBlockEnd
  0
BLOCK
  5
58
330
57
100
AcDbEntity
  8
0
100
AcDbBlockBegin
  2
DC_GROUP_5
 70
     0
 71
     0
 10
0.0
 20
0.0
 30
0.0
  3
DC_GROUP_5
  1

  0
LINE
  5
E1
330
57
100
AcDbEntity
  8
LAYER0032
 62
     3
100
AcDbLine
 10
-995.5089183602117
 20
-333.7602585219692
 30
0.0
 11
-1002.508918360212
 21
-333.760258521969
 31
0.0
  0
LINE
  5
E2
330
57
100
AcDbEntity
  8
LAYER0032
 62
     3
100
AcDbLine
 10
-995.5089183602117
 20
-333.7602585219692
 30
0.0
 11
-995.5769551033277
 21
-335.0584769171502
 31
0.0
  0
LINE
  5
E3
330
57
100
AcDbEntity
  8
LAYER0032
 62
     3
100
AcDbLine
 10
-1002.508918360212
 20
-333.760258521969
 30
0.0
 11
-1002.440881617096
 21
-335.05847691715
 31
0.0
  0
ARC
  5
E4
330
57
100
AcDbEntity
  8
LAYER0032
 62
     3
100
AcDbCircle
 10
-996.5390063103182
 20
-335.0080579498353
 30
0.0
 40
0.9633714741142343
100
AcDbArc
 50
288.8489688275917
 51
356.9999999999999
  0
ARC
  5
E5
330
57
100
AcDbEntity
  8
LAYER0032
 62
     3
100
AcDbCircle
 10
-1001.478830410105
 20
-335.0080579498351
 30
0.0
 40
0.9633714741142343
100
AcDbArc
 50
183.0
 51
251.1510311724082
  0
ARC
  5
E6
330
57
100
AcDbEntity
  8
LAYER0032
 62
     3
100
AcDbCircle
 10
-999.0089183602117
 20
-327.3602585219693
 30
0.0
 40
9.0
100
AcDbArc
 50
251.9999999999999
 51
287.9999999999999
  0
LINE
  5
E7
330
57
100
AcDbEntity
  8
LAYER0032
 62
     3
100
AcDbLine
 10
-1001.008918360212
 20
-333.760258521969
 30
0.0
 11
-1001.008918360212
 21
-316.2790079385238
 31
0.0
  0
LINE
  5
E8
330
57
100
AcDbEntity
  8
LAYER0032
 62
     3
100
AcDbLine
 10
-1001.008918360212
 20
-289.1790079385242
 30
0.0
 11
-1001.008918360212
 21
-305.6790079385239
 31
0.0
  0
LINE
  5
E9
330
57
100
AcDbEntity
  8
LAYER0032
 62
     3
100
AcDbLine
 10
-997.0089183602117
 20
-333.7602585219692
 30
0.0
 11
-997.0089183602117
 21
-316.2790079385239
 31
0.0
  0
LINE
  5
EA
330
57
100
AcDbEntity
  8
LAYER0032
 62
     3
100
AcDbLine
 10
-997.0089183602117
 20
-288.8037302635511
 30
0.0
 11
-997.0089183602117
 21
-305.679007938524
 31
0.0
  0
ENDBLK
  5
59
330
57
100
AcDbEntity
  8
0
100
AcDbBlockEnd
  0
BLOCK
  5
5B
330
5A
100
AcDbEntity
  8
0
100
AcDbBlockBegin
  2
DC_GROUP_6
 70
     0
 71
     0
 10
0.0
 20
0.0
 30
0.0
  3
DC_GROUP_6
  1

  0
LINE
  5
EB
330
5A
100
AcDbEntity
  8
0
 62
     3
100
AcDbLine
 10
-1516.508918360215
 20
-832.9790079385241
 30
0.0
 11
-1516.508918360215
 21
-800.9790079385355
 31
0.0
  0
LINE
  5
EC
330
5A
100
AcDbEntity
  8
0
 62
     3
100
AcDbLine
 10
-1486.508918360215
 20
-832.9790079385241
 30
0.0
 11
-1486.508918360215
 21
-800.9790079385355
 31
0.0
  0
LINE
  5
ED
330
5A
100
AcDbEntity
  8
0
 62
     4
100
AcDbLine
 10
-1514.614418360214
 20
-832.9790079385241
 30
0.0
 11
-1514.614418360214
 21
-800.9790079385355
 31
0.0
  0
LINE
  5
EE
330
5A
100
AcDbEntity
  8
0
 62
     4
100
AcDbLine
 10
-1488.403418360215
 20
-832.9790079385241
 30
0.0
 11
-1488.403418360215
 21
-800.9790079385355
 31
0.0
  0
ENDBLK
  5
5C
330
5A
100
AcDbEntity
  8
0
100
AcDbBlockEnd
  0
BLOCK
  5
5E
330
5D
100
AcDbEntity
  8
0
100
AcDbBlockBegin
  2
DC_GROUP_7
 70
     0
 71
     0
 10
0.0
 20
0.0
 30
0.0
  3
DC_GROUP_7
  1

  0
LINE
  5
EF
330
5D
100
AcDbEntity
  8
0
 62
     3
100
AcDbLine
 10
-1600.558918360217
 20
-294.4790079385239
 30
0.0
 11
-1600.558918360217
 21
-301.3531749136042
 31
0.0
  0
LINE
  5
F0
330
5D
100
AcDbEntity
  8
0
 62
     3
100
AcDbLine
 10
-1606.043745917519
 20
-294.4790079385239
 30
0.0
 11
-1606.043745917519
 21
-301.3531749136042
 31
0.0
  0
LINE
  5
F1
330
5D
100
AcDbEntity
  8
0
 62
     3
100
AcDbLine
 10
-1603.301332138868
 20
-302.4790079385239
 30
0.0
 11
-1619.716504581567
 21
-302.4790079385239
 31
0.0
  0
LINE
  5
F2
330
5D
100
AcDbEntity
  8
0
 62
     3
100
AcDbLine
 10
-1622.458918360218
 20
-294.4790079385239
 30
0.0
 11
-1622.458918360218
 21
-301.3531749136042
 31
0.0
  0
LINE
  5
F3
330
5D
100
AcDbEntity
  8
0
 62
     3
100
AcDbLine
 10
-1616.974090802916
 20
-294.4790079385239
 30
0.0
 11
-1616.974090802916
 21
-301.3531749136042
 31
0.0
  0
ARC
  5
F4
330
5D
100
AcDbEntity
  8
0
 62
     3
100
AcDbCircle
 10
-1603.301332138868
 20
-298.5759720802715
 30
0.0
 40
3.903035858252559
100
AcDbArc
 50
225.361119214051
 51
314.6388807859514
  0
ARC
  5
F5
330
5D
100
AcDbEntity
  8
0
 62
     3
100
AcDbCircle
 10
-1619.716504581567
 20
-298.5759720802715
 30
0.0
 40
3.903035858252399
100
AcDbArc
 50
225.3611192140486
 51
314.638880785949
  0
ARC
  5
F6
330
5D
100
AcDbEntity
  8
0
 62
     3
100
AcDbCircle
 10
-1611.508918360217
 20
-288.6511981571176
 30
0.0
 40
13.8278097814063
100
AcDbArc
 50
246.7196482575294
 51
293.2803517424706
  0
LINE
  5
F7
330
5D
100
AcDbEntity
  8
0
 62
     3
100
AcDbLine
 10
-1623.508918360217
 20
-291.9790079385239
 30
0.0
 11
-1623.508918360217
 21
-294.4790079385239
 31
0.0
  0
LINE
  5
F8
330
5D
100
AcDbEntity
  8
0
 62
     3
100
AcDbLine
 10
-1599.508918360217
 20
-291.9790079385239
 30
0.0
 11
-1623.508918360217
 21
-291.9790079385239
 31
0.0
  0
LINE
  5
F9
330
5D
100
AcDbEntity
  8
0
 62
     3
100
AcDbLine
 10
-1599.508918360217
 20
-291.9790079385239
 30
0.0
 11
-1599.508918360217
 21
-294.4790079385239
 31
0.0
  0
LINE
  5
FA
330
5D
100
AcDbEntity
  8
0
 62
     3
100
AcDbLine
 10
-1599.508918360217
 20
-294.4790079385239
 30
0.0
 11
-1623.508918360217
 21
-294.4790079385239
 31
0.0
  0
ENDBLK
  5
5F
330
5D
100
AcDbEntity
  8
0
100
AcDbBlockEnd
  0
BLOCK
  5
61
330
60
100
AcDbEntity
  8
0
100
AcDbBlockBegin
  2
DC_GROUP_8
 70
     0
 71
     0
 10
0.0
 20
0.0
 30
0.0
  3
DC_GROUP_8
  1

  0
LINE
  5
FB
330
60
100
AcDbEntity
  8
0
 62
     3
100
AcDbLine
 10
-1402.458918360212
 20
-294.4790079385239
 30
0.0
 11
-1402.458918360212
 21
-301.3531749136042
 31
0.0
  0
LINE
  5
FC
330
60
100
AcDbEntity
  8
0
 62
     3
100
AcDbLine
 10
-1396.97409080291
 20
-294.4790079385239
 30
0.0
 11
-1396.97409080291
 21
-301.3531749136042
 31
0.0
  0
LINE
  5
FD
330
60
100
AcDbEntity
  8
0
 62
     3
100
AcDbLine
 10
-1399.716504581561
 20
-302.4790079385239
 30
0.0
 11
-1383.301332138862
 21
-302.4790079385239
 31
0.0
  0
LINE
  5
FE
330
60
100
AcDbEntity
  8
0
 62
     3
100
AcDbLine
 10
-1380.558918360212
 20
-294.4790079385239
 30
0.0
 11
-1380.558918360212
 21
-301.3531749136042
 31
0.0
  0
LINE
  5
FF
330
60
100
AcDbEntity
  8
0
 62
     3
100
AcDbLine
 10
-1386.043745917513
 20
-294.4790079385239
 30
0.0
 11
-1386.043745917513
 21
-301.3531749136042
 31
0.0
  0
ARC
  5
100
330
60
100
AcDbEntity
  8
0
 62
     3
100
AcDbCircle
 10
-1399.716504581561
 20
-298.5759720802715
 30
0.0
 40
3.903035858252559
100
AcDbArc
 50
225.3611192140486
 51
314.638880785949
  0
ARC
  5
101
330
60
100
AcDbEntity
  8
0
 62
     3
100
AcDbCircle
 10
-1383.301332138862
 20
-298.5759720802715
 30
0.0
 40
3.903035858252399
100
AcDbArc
 50
225.361119214051
 51
314.6388807859514
  0
ARC
  5
102
330
60
100
AcDbEntity
  8
0
 62
     3
100
AcDbCircle
 10
-1391.508918360212
 20
-288.6511981571176
 30
0.0
 40
13.8278097814063
100
AcDbArc
 50
246.7196482575294
 51
293.2803517424706
  0
LINE
  5
103
330
60
100
AcDbEntity
  8
0
 62
     3
100
AcDbLine
 10
-1379.508918360212
 20
-291.9790079385239
 30
0.0
 11
-1379.508918360212
 21
-294.4790079385239
 31
0.0
  0
LINE
  5
104
330
60
100
AcDbEntity
  8
0
 62
     3
100
AcDbLine
 10
-1403.508918360212
 20
-291.9790079385239
 30
0.0
 11
-1379.508918360212
 21
-291.9790079385239
 31
0.0
  0
LINE
  5
105
330
60
100
AcDbEntity
  8
0
 62
     3
100
AcDbLine
 10
-1403.508918360212
 20
-291.9790079385239
 30
0.0
 11
-1403.508918360212
 21
-294.4790079385239
 31
0.0
  0
LINE
  5
106
330
60
100
AcDbEntity
  8
0
 62
     3
100
AcDbLine
 10
-1403.508918360212
 20
-294.4790079385239
 30
0.0
 11
-1379.508918360212
 21
-294.4790079385239
 31
0.0
  0
ENDBLK
  5
62
330
60
100
AcDbEntity
  8
0
100
AcDbBlockEnd
  0
BLOCK
  5
64
330
63
100
AcDbEntity
  8
0
100
AcDbBlockBegin
  2
DC_GROUP_9
 70
     0
 71
     0
 10
0.0
 20
0.0
 30
0.0
  3
DC_GROUP_9
  1

  0
LINE
  5
107
330
63
100
AcDbEntity
  8
0
 62
     3
100
AcDbLine
 10
-486.5089183602142
 20
-832.9790079385241
 30
0.0
 11
-486.5089183602142
 21
-800.9790079385355
 31
0.0
  0
LINE
  5
108
330
63
100
AcDbEntity
  8
0
 62
     3
100
AcDbLine
 10
-516.5089183602145
 20
-832.9790079385241
 30
0.0
 11
-516.5089183602145
 21
-800.9790079385355
 31
0.0
  0
LINE
  5
109
330
63
100
AcDbEntity
  8
0
 62
     4
100
AcDbLine
 10
-488.4034183602146
 20
-832.9790079385241
 30
0.0
 11
-488.4034183602146
 21
-800.9790079385355
 31
0.0
  0
LINE
  5
10A
330
63
100
AcDbEntity
  8
0
 62
     4
100
AcDbLine
 10
-514.6144183602141
 20
-832.9790079385241
 30
0.0
 11
-514.6144183602141
 21
-800.9790079385355
 31
0.0
  0
ENDBLK
  5
65
330
63
100
AcDbEntity
  8
0
100
AcDbBlockEnd
  0
BLOCK
  5
67
330
66
100
AcDbEntity
  8
0
100
AcDbBlockBegin
  2
DC_GROUP_10
 70
     0
 71
     0
 10
0.0
 20
0.0
 30
0.0
  3
DC_GROUP_10
  1

  0
LINE
  5
10B
330
66
100
AcDbEntity
  8
0
 62
     3
100
AcDbLine
 10
-402.4589183602116
 20
-294.4790079385239
 30
0.0
 11
-402.4589183602116
 21
-301.3531749136042
 31
0.0
  0
LINE
  5
10C
330
66
100
AcDbEntity
  8
0
 62
     3
100
AcDbLine
 10
-396.97409080291
 20
-294.4790079385239
 30
0.0
 11
-396.97409080291
 21
-301.3531749136042
 31
0.0
  0
LINE
  5
10D
330
66
100
AcDbEntity
  8
0
 62
     3
100
AcDbLine
 10
-399.7165045815607
 20
-302.4790079385239
 30
0.0
 11
-383.3013321388623
 21
-302.4790079385239
 31
0.0
  0
LINE
  5
10E
330
66
100
AcDbEntity
  8
0
 62
     3
100
AcDbLine
 10
-380.5589183602115
 20
-294.4790079385239
 30
0.0
 11
-380.5589183602115
 21
-301.3531749136042
 31
0.0
  0
LINE
  5
10F
330
66
100
AcDbEntity
  8
0
 62
     3
100
AcDbLine
 10
-386.043745917513
 20
-294.4790079385239
 30
0.0
 11
-386.043745917513
 21
-301.3531749136042
 31
0.0
  0
ARC
  5
110
330
66
100
AcDbEntity
  8
0
 62
     3
100
AcDbCircle
 10
-399.7165045815607
 20
-298.5759720802715
 30
0.0
 40
3.903035858252559
100
AcDbArc
 50
225.3611192140486
 51
314.638880785949
  0
ARC
  5
111
330
66
100
AcDbEntity
  8
0
 62
     3
100
AcDbCircle
 10
-383.3013321388623
 20
-298.5759720802715
 30
0.0
 40
3.903035858252399
100
AcDbArc
 50
225.361119214051
 51
314.6388807859514
  0
ARC
  5
112
330
66
100
AcDbEntity
  8
0
 62
     3
100
AcDbCircle
 10
-391.5089183602115
 20
-288.6511981571176
 30
0.0
 40
13.8278097814063
100
AcDbArc
 50
246.7196482575294
 51
293.2803517424706
  0
LINE
  5
113
330
66
100
AcDbEntity
  8
0
 62
     3
100
AcDbLine
 10
-379.5089183602115
 20
-291.9790079385239
 30
0.0
 11
-379.5089183602115
 21
-294.4790079385239
 31
0.0
  0
LINE
  5
114
330
66
100
AcDbEntity
  8
0
 62
     3
100
AcDbLine
 10
-403.5089183602115
 20
-291.9790079385239
 30
0.0
 11
-379.5089183602115
 21
-291.9790079385239
 31
0.0
  0
LINE
  5
115
330
66
100
AcDbEntity
  8
0
 62
     3
100
AcDbLine
 10
-403.5089183602115
 20
-291.9790079385239
 30
0.0
 11
-403.5089183602115
 21
-294.4790079385239
 31
0.0
  0
LINE
  5
116
330
66
100
AcDbEntity
  8
0
 62
     3
100
AcDbLine
 10
-403.5089183602115
 20
-294.4790079385239
 30
0.0
 11
-379.5089183602115
 21
-294.4790079385239
 31
0.0
  0
ENDBLK
  5
68
330
66
100
AcDbEntity
  8
0
100
AcDbBlockEnd
  0
BLOCK
  5
6A
330
69
100
AcDbEntity
  8
0
100
AcDbBlockBegin
  2
DC_GROUP_11
 70
     0
 71
     0
 10
0.0
 20
0.0
 30
0.0
  3
DC_GROUP_11
  1

  0
LINE
  5
117
330
69
100
AcDbEntity
  8
0
 62
     3
100
AcDbLine
 10
-600.5589183602174
 20
-294.4790079385239
 30
0.0
 11
-600.5589183602174
 21
-301.3531749136042
 31
0.0
  0
LINE
  5
118
330
69
100
AcDbEntity
  8
0
 62
     3
100
AcDbLine
 10
-606.0437459175189
 20
-294.4790079385239
 30
0.0
 11
-606.0437459175189
 21
-301.3531749136042
 31
0.0
  0
LINE
  5
119
330
69
100
AcDbEntity
  8
0
 62
     3
100
AcDbLine
 10
-603.3013321388683
 20
-302.4790079385239
 30
0.0
 11
-619.7165045815666
 21
-302.4790079385239
 31
0.0
  0
LINE
  5
11A
330
69
100
AcDbEntity
  8
0
 62
     3
100
AcDbLine
 10
-622.4589183602175
 20
-294.4790079385239
 30
0.0
 11
-622.4589183602175
 21
-301.3531749136042
 31
0.0
  0
LINE
  5
11B
330
69
100
AcDbEntity
  8
0
 62
     3
100
AcDbLine
 10
-616.974090802916
 20
-294.4790079385239
 30
0.0
 11
-616.974090802916
 21
-301.3531749136042
 31
0.0
  0
ARC
  5
11C
330
69
100
AcDbEntity
  8
0
 62
     3
100
AcDbCircle
 10
-603.3013321388683
 20
-298.5759720802715
 30
0.0
 40
3.903035858252559
100
AcDbArc
 50
225.361119214051
 51
314.6388807859514
  0
ARC
  5
11D
330
69
100
AcDbEntity
  8
0
 62
     3
100
AcDbCircle
 10
-619.7165045815666
 20
-298.5759720802715
 30
0.0
 40
3.903035858252399
100
AcDbArc
 50
225.3611192140486
 51
314.638880785949
  0
ARC
  5
11E
330
69
100
AcDbEntity
  8
0
 62
     3
100
AcDbCircle
 10
-611.5089183602174
 20
-288.6511981571176
 30
0.0
 40
13.8278097814063
100
AcDbArc
 50
246.7196482575294
 51
293.2803517424706
  0
LINE
  5
11F
330
69
100
AcDbEntity
  8
0
 62
     3
100
AcDbLine
 10
-623.5089183602174
 20
-291.9790079385239
 30
0.0
 11
-623.5089183602174
 21
-294.4790079385239
 31
0.0
  0
LINE
  5
120
330
69
100
AcDbEntity
  8
0
 62
     3
100
AcDbLine
 10
-599.5089183602174
 20
-291.9790079385239
 30
0.0
 11
-623.5089183602174
 21
-291.9790079385239
 31
0.0
  0
LINE
  5
121
330
69
100
AcDbEntity
  8
0
 62
     3
100
AcDbLine
 10
-599.5089183602174
 20
-291.9790079385239
 30
0.0
 11
-599.5089183602174
 21
-294.4790079385239
 31
0.0
  0
LINE
  5
122
330
69
100
AcDbEntity
  8
0
 62
     3
100
AcDbLine
 10
-599.5089183602174
 20
-294.4790079385239
 30
0.0
 11
-623.5089183602174
 21
-294.4790079385239
 31
0.0
  0
ENDBLK
  5
6B
330
69
100
AcDbEntity
  8
0
100
AcDbBlockEnd
  0
BLOCK
  5
6D
330
6C
100
AcDbEntity
  8
0
100
AcDbBlockBegin
  2
DA_IMAGEDIMGROUP_1
 70
     0
 71
     0
 10
0.0
 20
0.0
 30
0.0
  3
DA_IMAGEDIMGROUP_1
  1

  0
LINE
  5
123
330
6C
100
AcDbEntity
  8
0
 62
     9
100
AcDbLine
 10
-6.355065195586931
 20
-875.9790079385241
 30
0.0
 11
-6.355065195586931
 21
-781.979007938536
 31
0.0
  0
INSERT
  5
12A
330
6C
100
AcDbEntity
  8
0
 62
     9
100
AcDbBlockReference
  2
_OPEN30
 10
-6.355065195586931
 20
-875.9790079385241
 30
0.0
 41
36.00003345389238
 42
35.99987128774157
 50
270.0
  0
INSERT
  5
12B
330
6C
100
AcDbEntity
  8
0
 62
     9
100
AcDbBlockReference
  2
_OPEN30
 10
-6.355065195586931
 20
-781.979007938536
 30
0.0
 41
36.00003345389238
 42
35.99987128774157
 50
90.0
  0
LINE
  5
12C
330
6C
100
AcDbEntity
  8
0
 62
     9
100
AcDbLine
 10
-6.355065195586931
 20
-781.979007938536
 30
0.0
 11
-6.355065195586931
 21
-386.9790079385355
 31
0.0
  0
INSERT
  5
12D
330
6C
100
AcDbEntity
  8
0
 62
     9
100
AcDbBlockReference
  2
_OPEN30
 10
-6.355065195586931
 20
-781.979007938536
 30
0.0
 41
36.00003345389238
 42
35.99987128774157
 50
270.0
  0
INSERT
  5
12E
330
6C
100
AcDbEntity
  8
0
 62
     9
100
AcDbBlockReference
  2
_OPEN30
 10
-6.355065195586931
 20
-386.9790079385355
 30
0.0
 41
36.00003345389238
 42
35.99987128774157
 50
90.0
  0
LINE
  5
12F
330
6C
100
AcDbEntity
  8
0
 62
     9
100
AcDbLine
 10
-449.5089183602142
 20
-875.9790079385241
 30
0.0
 11
5.644934804413069
 21
-875.9790079385241
 31
0.0
  0
LINE
  5
130
330
6C
100
AcDbEntity
  8
0
 62
     9
100
AcDbLine
 10
-389.5089183602142
 20
-781.979007938536
 30
0.0
 11
5.644934804413069
 21
-781.979007938536
 31
0.0
  0
LINE
  5
131
330
6C
100
AcDbEntity
  8
0
 62
     9
100
AcDbLine
 10
-364.5089183602142
 20
-386.9790079385355
 30
0.0
 11
5.644934804413069
 21
-386.9790079385355
 31
0.0
  0
TEXT
  5
133
330
6C
100
AcDbEntity
  8
0
 62
     7
100
AcDbText
 10
-18.35506519558693
 20
-862.5790079385301
 30
0.0
 40
42.0
  1
94
 50
90.0
 41
0.8000000000000005
  7
FDASTYLE1
 72
     5
 11
-18.35506519558693
 21
-795.3790079385301
 31
0.0
100
AcDbText
  0
TEXT
  5
134
330
6C
100
AcDbEntity
  8
0
 62
     7
100
AcDbText
 10
-18.35506519558693
 20
-634.8790079385358
 30
0.0
 40
42.0
  1
395
 50
90.0
 41
0.7999999999999996
  7
FDASTYLE1
 72
     5
 11
-18.35506519558693
 21
-534.0790079385358
 31
0.0
100
AcDbText
  0
ENDBLK
  5
6E
330
6C
100
AcDbEntity
  8
0
100
AcDbBlockEnd
  0
BLOCK
  5
70
330
6F
100
AcDbEntity
  8
0
100
AcDbBlockBegin
  2
DA_IMAGEDIMGROUP_2
 70
     0
 71
     0
 10
0.0
 20
0.0
 30
0.0
  3
DA_IMAGEDIMGROUP_2
  1

  0
LINE
  5
135
330
6F
100
AcDbEntity
  8
0
 62
     9
100
AcDbLine
 10
-601.5089183602145
 20
-982.4533600802413
 30
0.0
 11
-401.5089183602142
 21
-982.4533600802413
 31
0.0
  0
LINE
  5
136
330
6F
100
AcDbEntity
  8
0
 62
     9
100
AcDbLine
 10
-601.5089183602145
 20
-793.979007938536
 30
0.0
 11
-601.5089183602145
 21
-994.4533600802413
 31
0.0
  0
LINE
  5
137
330
6F
100
AcDbEntity
  8
0
 62
     9
100
AcDbLine
 10
-401.5089183602142
 20
-793.979007938536
 30
0.0
 11
-401.5089183602142
 21
-994.4533600802413
 31
0.0
  0
LINE
  5
138
330
6F
100
AcDbEntity
  8
0
 62
     9
100
AcDbLine
 10
-208.3355583602142
 20
-982.4533600802413
 30
0.0
 11
-401.5089183602142
 21
-982.4533600802413
 31
0.0
  0
INSERT
  5
139
330
6F
100
AcDbEntity
  8
0
 62
     9
100
AcDbBlockReference
  2
_OPEN30
 10
-401.5089183602142
 20
-982.4533600802413
 30
0.0
 41
36.00003345389238
 42
35.99987128774157
 50
180.0
  0
LINE
  5
13A
330
6F
100
AcDbEntity
  8
0
 62
     9
100
AcDbLine
 10
-661.5089183602145
 20
-982.4533600802413
 30
0.0
 11
-601.5089183602145
 21
-982.4533600802413
 31
0.0
  0
INSERT
  5
13B
330
6F
100
AcDbEntity
  8
0
 62
     9
100
AcDbBlockReference
  2
_OPEN30
 10
-601.5089183602145
 20
-982.4533600802413
 30
0.0
 41
36.00003345389238
 42
35.99987128774157
 50
360.0
  0
TEXT
  5
13C
330
6F
100
AcDbEntity
  8
0
 62
     7
100
AcDbText
 10
-354.7355583602142
 20
-970.4533600802413
 30
0.0
 40
42.0
  1
□200
 41
0.7619047619047619
  7
FDASTYLE1
 72
     5
 11
-220.3355583602142
 21
-970.4533600802413
 31
0.0
100
AcDbText
  0
ENDBLK
  5
71
330
6F
100
AcDbEntity
  8
0
100
AcDbBlockEnd
  0
BLOCK
  5
73
330
72
100
AcDbEntity
  8
0
100
AcDbBlockBegin
  2
DA_IMAGEDIMGROUP_3
 70
     0
 71
     0
 10
0.0
 20
0.0
 30
0.0
  3
DA_IMAGEDIMGROUP_3
  1

  0
LINE
  5
13D
330
72
100
AcDbEntity
  8
0
 62
     9
100
AcDbLine
 10
-1401.508918360215
 20
-793.979007938536
 30
0.0
 11
-1401.508918360215
 21
-1102.537612838516
 31
0.0
  0
LINE
  5
13E
330
72
100
AcDbEntity
  8
0
 62
     9
100
AcDbLine
 10
-601.5089183602145
 20
-793.979007938536
 30
0.0
 11
-601.5089183602145
 21
-1102.537612838516
 31
0.0
  0
LINE
  5
13F
330
72
100
AcDbEntity
  8
0
 62
     9
100
AcDbLine
 10
-1401.508918360215
 20
-1090.537612838516
 30
0.0
 11
-601.5089183602145
 21
-1090.537612838516
 31
0.0
  0
INSERT
  5
140
330
72
100
AcDbEntity
  8
0
 62
     9
100
AcDbBlockReference
  2
_OPEN30
 10
-1401.508918360215
 20
-1090.537612838516
 30
0.0
 41
36.00003345389238
 42
35.99987128774157
 50
180.0
  0
INSERT
  5
141
330
72
100
AcDbEntity
  8
0
 62
     9
100
AcDbBlockReference
  2
_OPEN30
 10
-601.5089183602145
 20
-1090.537612838516
 30
0.0
 41
36.00003345389238
 42
35.99987128774157
 50
360.0
  0
TEXT
  5
142
330
72
100
AcDbEntity
  8
0
 62
     7
100
AcDbText
 10
-1051.908918360215
 20
-1078.537612838516
 30
0.0
 40
42.0
  1
800
 41
0.8000000000000005
  7
FDASTYLE1
 72
     5
 11
-951.1089183602145
 21
-1078.537612838516
 31
0.0
100
AcDbText
  0
ENDBLK
  5
74
330
72
100
AcDbEntity
  8
0
100
AcDbBlockEnd
  0
BLOCK
  5
76
330
75
100
AcDbEntity
  8
0
100
AcDbBlockBegin
  2
DA_IMAGEDIMGROUP_4
 70
     0
 71
     0
 10
0.0
 20
0.0
 30
0.0
  3
DA_IMAGEDIMGROUP_4
  1

  0
LINE
  5
143
330
75
100
AcDbEntity
  8
0
 62
     9
100
AcDbLine
 10
-132.3649400213026
 20
-781.979007938536
 30
0.0
 11
-132.3649400213026
 21
-717.9790079385238
 31
0.0
  0
LINE
  5
144
330
75
100
AcDbEntity
  8
0
 62
     9
100
AcDbLine
 10
-132.3649400213026
 20
-592.9790079385238
 30
0.0
 11
-132.3649400213026
 21
-531.9790079385239
 31
0.0
  0
LINE
  5
145
330
75
100
AcDbEntity
  8
0
 62
     9
100
AcDbLine
 10
-132.3649400213026
 20
-406.9790079385238
 30
0.0
 11
-132.3649400213026
 21
-386.9790079385355
 31
0.0
  0
LINE
  5
146
330
75
100
AcDbEntity
  8
0
 62
     9
100
AcDbLine
 10
-389.5089183602142
 20
-781.979007938536
 30
0.0
 11
-120.3649400213026
 21
-781.979007938536
 31
0.0
  0
LINE
  5
147
330
75
100
AcDbEntity
  8
0
 62
     9
100
AcDbLine
 10
-427.0089183602142
 20
-717.9790079385238
 30
0.0
 11
-120.3649400213026
 21
-717.9790079385238
 31
0.0
  0
LINE
  5
148
330
75
100
AcDbEntity
  8
0
 62
     9
100
AcDbLine
 10
-427.0089183602142
 20
-592.9790079385238
 30
0.0
 11
-120.3649400213026
 21
-592.9790079385238
 31
0.0
  0
LINE
  5
149
330
75
100
AcDbEntity
  8
0
 62
     9
100
AcDbLine
 10
-427.0089183602142
 20
-531.9790079385239
 30
0.0
 11
-120.3649400213026
 21
-531.9790079385239
 31
0.0
  0
LINE
  5
14A
330
75
100
AcDbEntity
  8
0
 62
     9
100
AcDbLine
 10
-427.0089183602142
 20
-406.9790079385238
 30
0.0
 11
-120.3649400213026
 21
-406.9790079385238
 31
0.0
  0
LINE
  5
14B
330
75
100
AcDbEntity
  8
0
 62
     9
100
AcDbLine
 10
-364.5089183602142
 20
-386.9790079385355
 30
0.0
 11
-120.3649400213026
 21
-386.9790079385355
 31
0.0
  0
LINE
  5
14C
330
75
100
AcDbEntity
  8
0
 62
     9
100
AcDbLine
 10
-132.3649400213026
 20
-717.9790079385238
 30
0.0
 11
-132.3649400213026
 21
-592.9790079385238
 31
0.0
  0
INSERT
  5
14D
330
75
100
AcDbEntity
  8
0
 62
     9
100
AcDbBlockReference
  2
_OPEN30
 10
-132.3649400213026
 20
-717.9790079385238
 30
0.0
 41
36.00003345389238
 42
35.99987128774157
 50
270.0
  0
INSERT
  5
14E
330
75
100
AcDbEntity
  8
0
 62
     9
100
AcDbBlockReference
  2
_OPEN30
 10
-132.3649400213026
 20
-592.9790079385238
 30
0.0
 41
36.00003345389238
 42
35.99987128774157
 50
90.0
  0
LINE
  5
14F
330
75
100
AcDbEntity
  8
0
 62
     9
100
AcDbLine
 10
-132.3649400213026
 20
-531.9790079385239
 30
0.0
 11
-132.3649400213026
 21
-406.9790079385238
 31
0.0
  0
INSERT
  5
150
330
75
100
AcDbEntity
  8
0
 62
     9
100
AcDbBlockReference
  2
_OPEN30
 10
-132.3649400213026
 20
-531.9790079385239
 30
0.0
 41
36.00003345389238
 42
35.99987128774157
 50
270.0
  0
INSERT
  5
151
330
75
100
AcDbEntity
  8
0
 62
     9
100
AcDbBlockReference
  2
_OPEN30
 10
-132.3649400213026
 20
-406.9790079385238
 30
0.0
 41
36.00003345389238
 42
35.99987128774157
 50
90.0
  0
LINE
  5
152
330
75
100
AcDbEntity
  8
0
 62
     9
100
AcDbLine
 10
-132.3649400213026
 20
-261.0056479385356
 30
0.0
 11
-132.3649400213026
 21
-386.9790079385355
 31
0.0
  0
INSERT
  5
153
330
75
100
AcDbEntity
  8
0
 62
     9
100
AcDbBlockReference
  2
_OPEN30
 10
-132.3649400213026
 20
-386.9790079385355
 30
0.0
 41
36.00003345389238
 42
35.99987128774157
 50
270.0
  0
LINE
  5
154
330
75
100
AcDbEntity
  8
0
 62
     9
100
AcDbLine
 10
-132.3649400213026
 20
-975.1523679385363
 30
0.0
 11
-132.3649400213026
 21
-781.979007938536
 31
0.0
  0
INSERT
  5
155
330
75
100
AcDbEntity
  8
0
 62
     9
100
AcDbBlockReference
  2
_OPEN30
 10
-132.3649400213026
 20
-781.979007938536
 30
0.0
 41
36.00003345389238
 42
35.99987128774157
 50
89.99999999999999
  0
TEXT
  5
156
330
75
100
AcDbEntity
  8
0
 62
     7
100
AcDbText
 10
-144.3649400213026
 20
-963.1523679385363
 30
0.0
 40
42.0
  1
64
 50
90.0
 41
0.8000000000000005
  7
FDASTYLE1
 72
     5
 11
-144.3649400213026
 21
-895.9523679385362
 31
0.0
100
AcDbText
  0
TEXT
  5
157
330
75
100
AcDbEntity
  8
0
 62
     7
100
AcDbText
 10
-144.3649400213026
 20
-705.8790079385237
 30
0.0
 40
42.0
  1
125
 50
90.0
 41
0.7999999999999996
  7
FDASTYLE1
 72
     5
 11
-144.3649400213026
 21
-605.0790079385238
 31
0.0
100
AcDbText
  0
TEXT
  5
158
330
75
100
AcDbEntity
  8
0
 62
     7
100
AcDbText
 10
-78.3649400213026
 20
-596.0790079385238
 30
0.0
 40
42.0
  1
61
 50
90.0
 41
0.8000000000000005
  7
FDASTYLE1
 72
     5
 11
-78.3649400213026
 21
-528.8790079385237
 31
0.0
100
AcDbText
  0
TEXT
  5
159
330
75
100
AcDbEntity
  8
0
 62
     7
100
AcDbText
 10
-144.3649400213026
 20
-519.8790079385238
 30
0.0
 40
42.0
  1
125
 50
90.0
 41
0.8000000000000005
  7
FDASTYLE1
 72
     5
 11
-144.3649400213026
 21
-419.0790079385238
 31
0.0
100
AcDbText
  0
TEXT
  5
15A
330
75
100
AcDbEntity
  8
0
 62
     7
100
AcDbText
 10
-144.3649400213026
 20
-340.2056479385355
 30
0.0
 40
42.0
  1
20
 50
90.0
 41
0.7999999999999998
  7
FDASTYLE1
 72
     5
 11
-144.3649400213026
 21
-273.0056479385355
 31
0.0
100
AcDbText
  0
ENDBLK
  5
77
330
75
100
AcDbEntity
  8
0
100
AcDbBlockEnd
  0
BLOCK
  5
79
330
78
100
AcDbEntity
  8
0
100
AcDbBlockBegin
  2
DC_GROUP_12
 70
     0
 71
     0
 10
0.0
 20
0.0
 30
0.0
  3
DC_GROUP_12
  1

  0
LINE
  5
15B
330
78
100
AcDbEntity
  8
0
 62
     3
100
AcDbLine
 10
-1329.008918360215
 20
-733.5790079385239
 30
0.0
 11
-1329.008918360215
 21
-738.3861876154963
 31
0.0
  0
LINE
  5
15C
330
78
100
AcDbEntity
  8
0
 62
     3
100
AcDbLine
 10
-1332.761695109947
 20
-733.5790079385239
 30
0.0
 11
-1332.761695109947
 21
-738.3861876154963
 31
0.0
  0
LINE
  5
15D
330
78
100
AcDbEntity
  8
0
 62
     3
100
AcDbLine
 10
-1330.885306735081
 20
-739.0790079385239
 30
0.0
 11
-1342.132529985348
 21
-739.0790079385239
 31
0.0
  0
LINE
  5
15E
330
78
100
AcDbEntity
  8
0
 62
     3
100
AcDbLine
 10
-1344.008918360215
 20
-733.5790079385239
 30
0.0
 11
-1344.008918360215
 21
-738.3861876154963
 31
0.0
  0
LINE
  5
15F
330
78
100
AcDbEntity
  8
0
 62
     3
100
AcDbLine
 10
-1340.256141610482
 20
-733.5790079385239
 30
0.0
 11
-1340.256141610482
 21
-738.3861876154963
 31
0.0
  0
ARC
  5
160
330
78
100
AcDbEntity
  8
0
 62
     3
100
AcDbCircle
 10
-1330.885306735081
 20
-736.1916551860454
 30
0.0
 40
2.887352752478486
100
AcDbArc
 50
229.4686050581028
 51
310.5313949418973
  0
ARC
  5
161
330
78
100
AcDbEntity
  8
0
 62
     3
100
AcDbCircle
 10
-1342.132529985348
 20
-736.1916551860454
 30
0.0
 40
2.887352752478486
100
AcDbArc
 50
229.4686050581028
 51
310.5313949418973
  0
ARC
  5
162
330
78
100
AcDbEntity
  8
0
 62
     3
100
AcDbCircle
 10
-1336.508918360215
 20
-728.5988866107555
 30
0.0
 40
10.48012132776833
100
AcDbArc
 50
249.0498637736406
 51
290.9501362263594
  0
LINE
  5
163
330
78
100
AcDbEntity
  8
0
 62
     3
100
AcDbLine
 10
-1345.008918360215
 20
-731.9790079385239
 30
0.0
 11
-1345.008918360215
 21
-733.5790079385239
 31
0.0
  0
LINE
  5
164
330
78
100
AcDbEntity
  8
0
 62
     3
100
AcDbLine
 10
-1328.008918360215
 20
-731.9790079385239
 30
0.0
 11
-1345.008918360215
 21
-731.9790079385239
 31
0.0
  0
LINE
  5
165
330
78
100
AcDbEntity
  8
0
 62
     3
100
AcDbLine
 10
-1328.008918360215
 20
-731.9790079385239
 30
0.0
 11
-1328.008918360215
 21
-733.5790079385239
 31
0.0
  0
LINE
  5
166
330
78
100
AcDbEntity
  8
0
 62
     3
100
AcDbLine
 10
-1328.008918360215
 20
-733.5790079385239
 30
0.0
 11
-1345.008918360215
 21
-733.5790079385239
 31
0.0
  0
ENDBLK
  5
7A
330
78
100
AcDbEntity
  8
0
100
AcDbBlockEnd
  0
BLOCK
  5
7C
330
7B
100
AcDbEntity
  8
0
100
AcDbBlockBegin
  2
DC_GROUP_13
 70
     0
 71
     0
 10
0.0
 20
0.0
 30
0.0
  3
DC_GROUP_13
  1

  0
LINE
  5
167
330
7B
100
AcDbEntity
  8
0
 62
     3
100
AcDbLine
 10
-1264.008918360215
 20
-733.5790079385239
 30
0.0
 11
-1264.008918360215
 21
-738.3861876154963
 31
0.0
  0
LINE
  5
168
330
7B
100
AcDbEntity
  8
0
 62
     3
100
AcDbLine
 10
-1260.256141610482
 20
-733.5790079385239
 30
0.0
 11
-1260.256141610482
 21
-738.3861876154963
 31
0.0
  0
LINE
  5
169
330
7B
100
AcDbEntity
  8
0
 62
     3
100
AcDbLine
 10
-1262.132529985348
 20
-739.0790079385239
 30
0.0
 11
-1250.885306735081
 21
-739.0790079385239
 31
0.0
  0
LINE
  5
16A
330
7B
100
AcDbEntity
  8
0
 62
     3
100
AcDbLine
 10
-1249.008918360215
 20
-733.5790079385239
 30
0.0
 11
-1249.008918360215
 21
-738.3861876154963
 31
0.0
  0
LINE
  5
16B
330
7B
100
AcDbEntity
  8
0
 62
     3
100
AcDbLine
 10
-1252.761695109947
 20
-733.5790079385239
 30
0.0
 11
-1252.761695109947
 21
-738.3861876154963
 31
0.0
  0
ARC
  5
16C
330
7B
100
AcDbEntity
  8
0
 62
     3
100
AcDbCircle
 10
-1262.132529985348
 20
-736.1916551860454
 30
0.0
 40
2.887352752478486
100
AcDbArc
 50
229.4686050581028
 51
310.5313949418973
  0
ARC
  5
16D
330
7B
100
AcDbEntity
  8
0
 62
     3
100
AcDbCircle
 10
-1250.885306735081
 20
-736.1916551860454
 30
0.0
 40
2.887352752478486
100
AcDbArc
 50
229.4686050581028
 51
310.5313949418973
  0
ARC
  5
16E
330
7B
100
AcDbEntity
  8
0
 62
     3
100
AcDbCircle
 10
-1256.508918360215
 20
-728.5988866107555
 30
0.0
 40
10.48012132776833
100
AcDbArc
 50
249.0498637736406
 51
290.9501362263594
  0
LINE
  5
16F
330
7B
100
AcDbEntity
  8
0
 62
     3
100
AcDbLine
 10
-1248.008918360215
 20
-731.9790079385239
 30
0.0
 11
-1248.008918360215
 21
-733.5790079385239
 31
0.0
  0
LINE
  5
170
330
7B
100
AcDbEntity
  8
0
 62
     3
100
AcDbLine
 10
-1265.008918360215
 20
-731.9790079385239
 30
0.0
 11
-1248.008918360215
 21
-731.9790079385239
 31
0.0
  0
LINE
  5
171
330
7B
100
AcDbEntity
  8
0
 62
     3
100
AcDbLine
 10
-1265.008918360215
 20
-731.9790079385239
 30
0.0
 11
-1265.008918360215
 21
-733.5790079385239
 31
0.0
  0
LINE
  5
172
330
7B
100
AcDbEntity
  8
0
 62
     3
100
AcDbLine
 10
-1265.008918360215
 20
-733.5790079385239
 30
0.0
 11
-1248.008918360215
 21
-733.5790079385239
 31
0.0
  0
ENDBLK
  5
7D
330
7B
100
AcDbEntity
  8
0
100
AcDbBlockEnd
  0
BLOCK
  5
7F
330
7E
100
AcDbEntity
  8
0
100
AcDbBlockBegin
  2
DC_GROUP_14
 70
     0
 71
     0
 10
0.0
 20
0.0
 30
0.0
  3
DC_GROUP_14
  1

  0
LINE
  5
173
330
7E
100
AcDbEntity
  8
0
 62
     3
100
AcDbLine
 10
-674.0089183602145
 20
-733.5790079385239
 30
0.0
 11
-674.0089183602145
 21
-738.3861876154963
 31
0.0
  0
LINE
  5
174
330
7E
100
AcDbEntity
  8
0
 62
     3
100
AcDbLine
 10
-670.2561416104818
 20
-733.5790079385239
 30
0.0
 11
-670.2561416104818
 21
-738.3861876154963
 31
0.0
  0
LINE
  5
175
330
7E
100
AcDbEntity
  8
0
 62
     3
100
AcDbLine
 10
-672.1325299853481
 20
-739.0790079385239
 30
0.0
 11
-660.8853067350808
 21
-739.0790079385239
 31
0.0
  0
LINE
  5
176
330
7E
100
AcDbEntity
  8
0
 62
     3
100
AcDbLine
 10
-659.0089183602145
 20
-733.5790079385239
 30
0.0
 11
-659.0089183602145
 21
-738.3861876154963
 31
0.0
  0
LINE
  5
177
330
7E
100
AcDbEntity
  8
0
 62
     3
100
AcDbLine
 10
-662.7616951099471
 20
-733.5790079385239
 30
0.0
 11
-662.7616951099471
 21
-738.3861876154963
 31
0.0
  0
ARC
  5
178
330
7E
100
AcDbEntity
  8
0
 62
     3
100
AcDbCircle
 10
-672.1325299853481
 20
-736.1916551860454
 30
0.0
 40
2.887352752478486
100
AcDbArc
 50
229.4686050581028
 51
310.5313949418973
  0
ARC
  5
179
330
7E
100
AcDbEntity
  8
0
 62
     3
100
AcDbCircle
 10
-660.8853067350808
 20
-736.1916551860454
 30
0.0
 40
2.887352752478486
100
AcDbArc
 50
229.4686050581028
 51
310.5313949418973
  0
ARC
  5
17A
330
7E
100
AcDbEntity
  8
0
 62
     3
100
AcDbCircle
 10
-666.5089183602145
 20
-728.5988866107555
 30
0.0
 40
10.48012132776833
100
AcDbArc
 50
249.0498637736406
 51
290.9501362263594
  0
LINE
  5
17B
330
7E
100
AcDbEntity
  8
0
 62
     3
100
AcDbLine
 10
-658.0089183602145
 20
-731.9790079385239
 30
0.0
 11
-658.0089183602145
 21
-733.5790079385239
 31
0.0
  0
LINE
  5
17C
330
7E
100
AcDbEntity
  8
0
 62
     3
100
AcDbLine
 10
-675.0089183602145
 20
-731.9790079385239
 30
0.0
 11
-658.0089183602145
 21
-731.9790079385239
 31
0.0
  0
LINE
  5
17D
330
7E
100
AcDbEntity
  8
0
 62
     3
100
AcDbLine
 10
-675.0089183602145
 20
-731.9790079385239
 30
0.0
 11
-675.0089183602145
 21
-733.5790079385239
 31
0.0
  0
LINE
  5
17E
330
7E
100
AcDbEntity
  8
0
 62
     3
100
AcDbLine
 10
-675.0089183602145
 20
-733.5790079385239
 30
0.0
 11
-658.0089183602145
 21
-733.5790079385239
 31
0.0
  0
ENDBLK
  5
80
330
7E
100
AcDbEntity
  8
0
100
AcDbBlockEnd
  0
BLOCK
  5
82
330
81
100
AcDbEntity
  8
0
100
AcDbBlockBegin
  2
DC_GROUP_15
 70
     0
 71
     0
 10
0.0
 20
0.0
 30
0.0
  3
DC_GROUP_15
  1

  0
LINE
  5
17F
330
81
100
AcDbEntity
  8
0
 62
     3
100
AcDbLine
 10
-739.0089183602145
 20
-733.5790079385239
 30
0.0
 11
-739.0089183602145
 21
-738.3861876154963
 31
0.0
  0
LINE
  5
180
330
81
100
AcDbEntity
  8
0
 62
     3
100
AcDbLine
 10
-742.7616951099471
 20
-733.5790079385239
 30
0.0
 11
-742.7616951099471
 21
-738.3861876154963
 31
0.0
  0
LINE
  5
181
330
81
100
AcDbEntity
  8
0
 62
     3
100
AcDbLine
 10
-740.8853067350808
 20
-739.0790079385239
 30
0.0
 11
-752.1325299853481
 21
-739.0790079385239
 31
0.0
  0
LINE
  5
182
330
81
100
AcDbEntity
  8
0
 62
     3
100
AcDbLine
 10
-754.0089183602145
 20
-733.5790079385239
 30
0.0
 11
-754.0089183602145
 21
-738.3861876154963
 31
0.0
  0
LINE
  5
183
330
81
100
AcDbEntity
  8
0
 62
     3
100
AcDbLine
 10
-750.2561416104818
 20
-733.5790079385239
 30
0.0
 11
-750.2561416104818
 21
-738.3861876154963
 31
0.0
  0
ARC
  5
184
330
81
100
AcDbEntity
  8
0
 62
     3
100
AcDbCircle
 10
-740.8853067350808
 20
-736.1916551860454
 30
0.0
 40
2.887352752478486
100
AcDbArc
 50
229.4686050581028
 51
310.5313949418973
  0
ARC
  5
185
330
81
100
AcDbEntity
  8
0
 62
     3
100
AcDbCircle
 10
-752.1325299853481
 20
-736.1916551860454
 30
0.0
 40
2.887352752478486
100
AcDbArc
 50
229.4686050581028
 51
310.5313949418973
  0
ARC
  5
186
330
81
100
AcDbEntity
  8
0
 62
     3
100
AcDbCircle
 10
-746.5089183602145
 20
-728.5988866107555
 30
0.0
 40
10.48012132776833
100
AcDbArc
 50
249.0498637736406
 51
290.9501362263594
  0
LINE
  5
187
330
81
100
AcDbEntity
  8
0
 62
     3
100
AcDbLine
 10
-755.0089183602145
 20
-731.9790079385239
 30
0.0
 11
-755.0089183602145
 21
-733.5790079385239
 31
0.0
  0
LINE
  5
188
330
81
100
AcDbEntity
  8
0
 62
     3
100
AcDbLine
 10
-738.0089183602145
 20
-731.9790079385239
 30
0.0
 11
-755.0089183602145
 21
-731.9790079385239
 31
0.0
  0
LINE
  5
189
330
81
100
AcDbEntity
  8
0
 62
     3
100
AcDbLine
 10
-738.0089183602145
 20
-731.9790079385239
 30
0.0
 11
-738.0089183602145
 21
-733.5790079385239
 31
0.0
  0
LINE
  5
18A
330
81
100
AcDbEntity
  8
0
 62
     3
100
AcDbLine
 10
-738.0089183602145
 20
-733.5790079385239
 30
0.0
 11
-755.0089183602145
 21
-733.5790079385239
 31
0.0
  0
ENDBLK
  5
83
330
81
100
AcDbEntity
  8
0
100
AcDbBlockEnd
  0
BLOCK
  5
85
330
84
100
AcDbEntity
  8
0
100
AcDbBlockBegin
  2
DA_IMAGEDIMGROUP_5
 70
     0
 71
     0
 10
0.0
 20
0.0
 30
0.0
  3
DA_IMAGEDIMGROUP_5
  1

  0
LINE
  5
18B
330
84
100
AcDbEntity
  8
0
 62
     9
100
AcDbLine
 10
-1541.508918360215
 20
-887.979007938524
 30
0.0
 11
-1541.508918360215
 21
-1009.525576730191
 31
0.0
  0
LINE
  5
18C
330
84
100
AcDbEntity
  8
0
 62
     9
100
AcDbLine
 10
-1461.508918360215
 20
-887.979007938524
 30
0.0
 11
-1461.508918360215
 21
-1009.525576730191
 31
0.0
  0
LINE
  5
18D
330
84
100
AcDbEntity
  8
0
 62
     9
100
AcDbLine
 10
-1541.508918360215
 20
-997.5255767301907
 30
0.0
 11
-1461.508918360215
 21
-997.5255767301907
 31
0.0
  0
LINE
  5
18E
330
84
100
AcDbEntity
  8
0
 62
     9
100
AcDbLine
 10
-1754.677477634141
 20
-997.5255767301907
 30
0.0
 11
-1541.508918360215
 21
-997.5255767301907
 31
0.0
  0
INSERT
  5
18F
330
84
100
AcDbEntity
  8
0
 62
     9
100
AcDbBlockReference
  2
_OPEN30
 10
-1541.508918360215
 20
-997.5255767301907
 30
0.0
 41
36.00003345389238
 42
35.99987128774157
 50
360.0
  0
LINE
  5
190
330
84
100
AcDbEntity
  8
0
 62
     9
100
AcDbLine
 10
-1401.508918360215
 20
-997.5255767301907
 30
0.0
 11
-1461.508918360215
 21
-997.5255767301907
 31
0.0
  0
INSERT
  5
191
330
84
100
AcDbEntity
  8
0
 62
     9
100
AcDbBlockReference
  2
_OPEN30
 10
-1461.508918360215
 20
-997.5255767301907
 30
0.0
 41
36.00003345389238
 42
35.99987128774157
 50
180.0
  0
TEXT
  5
192
330
84
100
AcDbEntity
  8
0
 62
     7
100
AcDbText
 10
-1742.677477634141
 20
-985.5255767301907
 30
0.0
 40
42.0
  1
φ80
 41
0.7499999999999997
  7
FDASTYLE1
 72
     5
 11
-1641.877477634141
 21
-985.5255767301907
 31
0.0
100
AcDbText
  0
ENDBLK
  5
86
330
84
100
AcDbEntity
  8
0
100
AcDbBlockEnd
  0
BLOCK
  5
88
330
87
100
AcDbEntity
  8
0
100
AcDbBlockBegin
  2
DA_IMAGEDIMGROUP_6
 70
     0
 71
     0
 10
0.0
 20
0.0
 30
0.0
  3
DA_IMAGEDIMGROUP_6
  1

  0
LINE
  5
193
330
87
100
AcDbEntity
  8
0
 62
     9
100
AcDbLine
 10
-389.5089183602142
 20
-875.9790079385241
 30
0.0
 11
113.6449348044131
 21
-875.9790079385241
 31
0.0
  0
LINE
  5
194
330
87
100
AcDbEntity
  8
0
 62
     9
100
AcDbLine
 10
-239.5089183602146
 20
-75.97900793852391
 30
0.0
 11
113.6449348044131
 21
-75.97900793852391
 31
0.0
  0
LINE
  5
195
330
87
100
AcDbEntity
  8
0
 62
     9
100
AcDbLine
 10
101.6449348044131
 20
-875.9790079385241
 30
0.0
 11
101.6449348044131
 21
-75.97900793852391
 31
0.0
  0
INSERT
  5
196
330
87
100
AcDbEntity
  8
0
 62
     9
100
AcDbBlockReference
  2
_OPEN30
 10
101.6449348044131
 20
-875.9790079385241
 30
0.0
 41
36.00003345389238
 42
35.99987128774157
 50
270.0
  0
INSERT
  5
197
330
87
100
AcDbEntity
  8
0
 62
     9
100
AcDbBlockReference
  2
_OPEN30
 10
101.6449348044131
 20
-75.97900793852391
 30
0.0
 41
36.00003345389238
 42
35.99987128774157
 50
90.0
  0
TEXT
  5
198
330
87
100
AcDbEntity
  8
0
 62
     7
100
AcDbText
 10
89.6449348044131
 20
-526.379007938524
 30
0.0
 40
42.0
  1
800
 50
90.0
 41
0.8
  7
FDASTYLE1
 72
     5
 11
89.6449348044131
 21
-425.5790079385239
 31
0.0
100
AcDbText
  0
ENDBLK
  5
89
330
87
100
AcDbEntity
  8
0
100
AcDbBlockEnd
  0
BLOCK
  5
8B
330
8A
100
AcDbEntity
  8
0
100
AcDbBlockBegin
  2
DA_IMAGEDIMGROUP_7
 70
     0
 71
     0
 10
0.0
 20
0.0
 30
0.0
  3
DA_IMAGEDIMGROUP_7
  1

  0
LINE
  5
199
330
8A
100
AcDbEntity
  8
0
 62
     9
100
AcDbLine
 10
-1501.508918360215
 20
-887.9790079385241
 30
0.0
 11
-1501.508918360215
 21
-1210.537612838516
 31
0.0
  0
LINE
  5
19A
330
8A
100
AcDbEntity
  8
0
 62
     9
100
AcDbLine
 10
-501.5089183602145
 20
-887.9790079385241
 30
0.0
 11
-501.5089183602145
 21
-1210.537612838516
 31
0.0
  0
LINE
  5
19B
330
8A
100
AcDbEntity
  8
0
 62
     9
100
AcDbLine
 10
-1501.508918360215
 20
-1198.537612838516
 30
0.0
 11
-501.5089183602145
 21
-1198.537612838516
 31
0.0
  0
INSERT
  5
19C
330
8A
100
AcDbEntity
  8
0
 62
     9
100
AcDbBlockReference
  2
_OPEN30
 10
-1501.508918360215
 20
-1198.537612838516
 30
0.0
 41
36.00003345389238
 42
35.99987128774157
 50
180.0
  0
INSERT
  5
19D
330
8A
100
AcDbEntity
  8
0
 62
     9
100
AcDbBlockReference
  2
_OPEN30
 10
-501.5089183602145
 20
-1198.537612838516
 30
0.0
 41
36.00003345389238
 42
35.99987128774157
 50
360.0
  0
TEXT
  5
19E
330
8A
100
AcDbEntity
  8
0
 62
     7
100
AcDbText
 10
-1068.708918360215
 20
-1186.537612838516
 30
0.0
 40
42.0
  1
1000
 41
0.8000000000000005
  7
FDASTYLE1
 72
     5
 11
-934.3089183602144
 21
-1186.537612838516
 31
0.0
100
AcDbText
  0
ENDBLK
  5
8C
330
8A
100
AcDbEntity
  8
0
100
AcDbBlockEnd
  0
BLOCK
  5
8E
330
8D
100
AcDbEntity
  8
0
100
AcDbBlockBegin
  2
DA_IMAGEDIMGROUP_8
 70
     0
 71
     0
 10
0.0
 20
0.0
 30
0.0
  3
DA_IMAGEDIMGROUP_8
  1

  0
LINE
  5
19F
330
8D
100
AcDbEntity
  8
0
 62
     9
100
AcDbLine
 10
-251.5089183602146
 20
1261.020992061476
 30
0.0
 11
-251.5089183602146
 21
1413.538615847543
 31
0.0
  0
LINE
  5
1A0
330
8D
100
AcDbEntity
  8
0
 62
     9
100
AcDbLine
 10
-1751.508918360215
 20
1261.020992061476
 30
0.0
 11
-1751.508918360215
 21
1413.538615847543
 31
0.0
  0
LINE
  5
1A1
330
8D
100
AcDbEntity
  8
0
 62
     9
100
AcDbLine
 10
-1751.508918360215
 20
1401.538615847543
 30
0.0
 11
-251.5089183602146
 21
1401.538615847543
 31
0.0
  0
INSERT
  5
1A2
330
8D
100
AcDbEntity
  8
0
 62
     9
100
AcDbBlockReference
  2
_OPEN30
 10
-1751.508918360215
 20
1401.538615847543
 30
0.0
 41
36.00003345389238
 42
35.99987128774157
 50
180.0
  0
INSERT
  5
1A3
330
8D
100
AcDbEntity
  8
0
 62
     9
100
AcDbBlockReference
  2
_OPEN30
 10
-251.5089183602146
 20
1401.538615847543
 30
0.0
 41
36.00003345389238
 42
35.99987128774157
 50
360.0
  0
TEXT
  5
1A4
330
8D
100
AcDbEntity
  8
0
 62
     7
100
AcDbText
 10
-1068.708918360215
 20
1413.538615847543
 30
0.0
 40
42.0
  1
1500
 41
0.8000000000000005
  7
FDASTYLE1
 72
     5
 11
-934.3089183602144
 21
1413.538615847543
 31
0.0
100
AcDbText
  0
ENDBLK
  5
8F
330
8D
100
AcDbEntity
  8
0
100
AcDbBlockEnd
  0
BLOCK
  5
91
330
90
100
AcDbEntity
  8
0
100
AcDbBlockBegin
  2
DA_IMAGEDIMGROUP_9
 70
     0
 71
     0
 10
0.0
 20
0.0
 30
0.0
  3
DA_IMAGEDIMGROUP_9
  1

  0
LINE
  5
1A5
330
90
100
AcDbEntity
  8
0
 62
     9
100
AcDbLine
 10
-239.5089183602146
 20
249.0209920614761
 30
0.0
 11
-50.31093279839553
 21
249.0209920614761
 31
0.0
  0
LINE
  5
1A6
330
90
100
AcDbEntity
  8
0
 62
     9
100
AcDbLine
 10
-239.5089183602146
 20
1249.020992061476
 30
0.0
 11
-50.31093279839553
 21
1249.020992061476
 31
0.0
  0
LINE
  5
1A7
330
90
100
AcDbEntity
  8
0
 62
     9
100
AcDbLine
 10
-62.31093279839553
 20
249.0209920614761
 30
0.0
 11
-62.31093279839553
 21
1249.020992061476
 31
0.0
  0
INSERT
  5
1A8
330
90
100
AcDbEntity
  8
0
 62
     9
100
AcDbBlockReference
  2
_OPEN30
 10
-62.31093279839553
 20
249.0209920614761
 30
0.0
 41
36.00003345389238
 42
35.99987128774157
 50
270.0
  0
INSERT
  5
1A9
330
90
100
AcDbEntity
  8
0
 62
     9
100
AcDbBlockReference
  2
_OPEN30
 10
-62.31093279839553
 20
1249.020992061476
 30
0.0
 41
36.00003345389238
 42
35.99987128774157
 50
90.0
  0
TEXT
  5
1AA
330
90
100
AcDbEntity
  8
0
 62
     7
100
AcDbText
 10
-74.31093279839553
 20
681.8209920614761
 30
0.0
 40
42.0
  1
1000
 50
90.0
 41
0.7999999999999998
  7
FDASTYLE1
 72
     5
 11
-74.31093279839553
 21
816.2209920614761
 31
0.0
100
AcDbText
  0
ENDBLK
  5
92
330
90
100
AcDbEntity
  8
0
100
AcDbBlockEnd
  0
BLOCK
  5
94
330
93
100
AcDbEntity
  8
0
100
AcDbBlockBegin
  2
DC_GROUP_16
 70
     0
 71
     0
 10
0.0
 20
0.0
 30
0.0
  3
DC_GROUP_16
  1

  0
LINE
  5
1AB
330
93
100
AcDbEntity
  8
LAYER0032
 62
     4
100
AcDbLine
 10
1509.183898068443
 20
-423.7970274231844
 30
0.0
 11
1502.819937037764
 21
-430.1609884538634
 31
0.0
  0
ARC
  5
1AC
330
93
100
AcDbEntity
  8
LAYER0032
 62
     4
100
AcDbCircle
 10
1506.001917553104
 20
-426.9790079385238
 30
0.0
 40
4.5
100
AcDbArc
 50
221.8103148957796
 51
491.8103148957786
  0
ENDBLK
  5
95
330
93
100
AcDbEntity
  8
0
100
AcDbBlockEnd
  0
BLOCK
  5
97
330
96
100
AcDbEntity
  8
0
100
AcDbBlockBegin
  2
DC_GROUP_17
 70
     0
 71
     0
 10
0.0
 20
0.0
 30
0.0
  3
DC_GROUP_17
  1

  0
LINE
  5
1AD
330
96
100
AcDbEntity
  8
LAYER0032
 62
     4
100
AcDbLine
 10
1475.001917553104
 20
-423.9790079385238
 30
0.0
 11
1468.819937037764
 21
-430.1609884538634
 31
0.0
  0
ARC
  5
1AE
330
96
100
AcDbEntity
  8
LAYER0032
 62
     4
100
AcDbCircle
 10
1472.001917553104
 20
-426.9790079385238
 30
0.0
 40
4.5
100
AcDbArc
 50
48.18968510422142
 51
318.1896851042235
  0
ENDBLK
  5
98
330
96
100
AcDbEntity
  8
0
100
AcDbBlockEnd
  0
BLOCK
  5
9A
330
99
100
AcDbEntity
  8
0
100
AcDbBlockBegin
  2
DC_GROUP_18
 70
     0
 71
     0
 10
0.0
 20
0.0
 30
0.0
  3
DC_GROUP_18
  1

  0
LINE
  5
1AF
330
99
100
AcDbEntity
  8
LAYER0032
 62
   150
100
AcDbLine
 10
1495.626720441793
 20
-460.4535031318629
 30
0.0
 11
1496.796146187164
 21
-461.4790079385237
 31
0.0
  0
LINE
  5
1B0
330
99
100
AcDbEntity
  8
LAYER0032
 62
   150
100
AcDbLine
 10
1496.796146187164
 20
-461.4790079385237
 30
0.0
 11
1497.09954652875
 21
-463.0045127451845
 31
0.0
  0
LINE
  5
1B1
330
99
100
AcDbEntity
  8
LAYER0032
 62
   150
100
AcDbLine
 10
1476.752561900122
 20
-472.7625015875777
 30
0.0
 11
1477.002561900122
 21
-473.1955142894699
 31
0.0
  0
LINE
  5
1B2
330
99
100
AcDbEntity
  8
LAYER0032
 62
   150
100
AcDbLine
 10
1476.752561900122
 20
-472.7625015875776
 30
0.0
 11
1495.626720441793
 21
-460.4535031318629
 31
0.0
  0
LINE
  5
1B3
330
99
100
AcDbEntity
  8
LAYER0032
 62
   150
100
AcDbLine
 10
1497.09954652875
 20
-463.0045127451845
 30
0.0
 11
1477.002561900122
 21
-473.1955142894699
 31
0.0
  0
ENDBLK
  5
9B
330
99
100
AcDbEntity
  8
0
100
AcDbBlockEnd
  0
BLOCK
  5
9D
330
9C
100
AcDbEntity
  8
0
100
AcDbBlockBegin
  2
DC_GROUP_19
 70
     0
 71
     0
 10
0.0
 20
0.0
 30
0.0
  3
DC_GROUP_19
  1

  0
LINE
  5
1B4
330
9C
100
AcDbEntity
  8
0
 62
     3
100
AcDbLine
 10
1124.001917553098
 20
-832.9790079385241
 30
0.0
 11
1124.001917553098
 21
-800.9790079385355
 31
0.0
  0
LINE
  5
1B5
330
9C
100
AcDbEntity
  8
0
 62
     3
100
AcDbLine
 10
1154.001917553098
 20
-832.9790079385241
 30
0.0
 11
1154.001917553098
 21
-800.9790079385355
 31
0.0
  0
LINE
  5
1B6
330
9C
100
AcDbEntity
  8
0
 62
     4
100
AcDbLine
 10
1125.896417553098
 20
-832.9790079385241
 30
0.0
 11
1125.896417553098
 21
-800.9790079385355
 31
0.0
  0
LINE
  5
1B7
330
9C
100
AcDbEntity
  8
0
 62
     4
100
AcDbLine
 10
1152.107417553098
 20
-832.9790079385241
 30
0.0
 11
1152.107417553098
 21
-800.9790079385355
 31
0.0
  0
ENDBLK
  5
9E
330
9C
100
AcDbEntity
  8
0
100
AcDbBlockEnd
  0
BLOCK
  5
A0
330
9F
100
AcDbEntity
  8
0
100
AcDbBlockBegin
  2
DC_GROUP_20
 70
     0
 71
     0
 10
0.0
 20
0.0
 30
0.0
  3
DC_GROUP_20
  1

  0
LINE
  5
1B8
330
9F
100
AcDbEntity
  8
0
 62
     3
100
AcDbLine
 10
1039.951917553095
 20
-294.4790079385239
 30
0.0
 11
1039.951917553095
 21
-301.3531749136042
 31
0.0
  0
LINE
  5
1B9
330
9F
100
AcDbEntity
  8
0
 62
     3
100
AcDbLine
 10
1034.467089995794
 20
-294.4790079385239
 30
0.0
 11
1034.467089995794
 21
-301.3531749136042
 31
0.0
  0
LINE
  5
1BA
330
9F
100
AcDbEntity
  8
0
 62
     3
100
AcDbLine
 10
1037.209503774445
 20
-302.4790079385239
 30
0.0
 11
1020.794331331746
 21
-302.4790079385239
 31
0.0
  0
LINE
  5
1BB
330
9F
100
AcDbEntity
  8
0
 62
     3
100
AcDbLine
 10
1018.051917553095
 20
-294.4790079385239
 30
0.0
 11
1018.051917553095
 21
-301.3531749136042
 31
0.0
  0
LINE
  5
1BC
330
9F
100
AcDbEntity
  8
0
 62
     3
100
AcDbLine
 10
1023.536745110397
 20
-294.4790079385239
 30
0.0
 11
1023.536745110397
 21
-301.3531749136042
 31
0.0
  0
ARC
  5
1BD
330
9F
100
AcDbEntity
  8
0
 62
     3
100
AcDbCircle
 10
1037.209503774445
 20
-298.5759720802715
 30
0.0
 40
3.903035858252559
100
AcDbArc
 50
225.361119214051
 51
314.6388807859514
  0
ARC
  5
1BE
330
9F
100
AcDbEntity
  8
0
 62
     3
100
AcDbCircle
 10
1020.794331331746
 20
-298.5759720802715
 30
0.0
 40
3.903035858252399
100
AcDbArc
 50
225.3611192140486
 51
314.638880785949
  0
ARC
  5
1BF
330
9F
100
AcDbEntity
  8
0
 62
     3
100
AcDbCircle
 10
1029.001917553095
 20
-288.6511981571176
 30
0.0
 40
13.8278097814063
100
AcDbArc
 50
246.7196482575294
 51
293.2803517424706
  0
LINE
  5
1C0
330
9F
100
AcDbEntity
  8
0
 62
     3
100
AcDbLine
 10
1017.001917553095
 20
-291.9790079385239
 30
0.0
 11
1017.001917553095
 21
-294.4790079385239
 31
0.0
  0
LINE
  5
1C1
330
9F
100
AcDbEntity
  8
0
 62
     3
100
AcDbLine
 10
1041.001917553095
 20
-291.9790079385239
 30
0.0
 11
1017.001917553095
 21
-291.9790079385239
 31
0.0
  0
LINE
  5
1C2
330
9F
100
AcDbEntity
  8
0
 62
     3
100
AcDbLine
 10
1041.001917553095
 20
-291.9790079385239
 30
0.0
 11
1041.001917553095
 21
-294.4790079385239
 31
0.0
  0
LINE
  5
1C3
330
9F
100
AcDbEntity
  8
0
 62
     3
100
AcDbLine
 10
1041.001917553095
 20
-294.4790079385239
 30
0.0
 11
1017.001917553095
 21
-294.4790079385239
 31
0.0
  0
ENDBLK
  5
A1
330
9F
100
AcDbEntity
  8
0
100
AcDbBlockEnd
  0
BLOCK
  5
A3
330
A2
100
AcDbEntity
  8
0
100
AcDbBlockBegin
  2
DC_GROUP_21
 70
     0
 71
     0
 10
0.0
 20
0.0
 30
0.0
  3
DC_GROUP_21
  1

  0
LINE
  5
1C4
330
A2
100
AcDbEntity
  8
0
 62
     3
100
AcDbLine
 10
1238.051917553101
 20
-294.4790079385239
 30
0.0
 11
1238.051917553101
 21
-301.3531749136042
 31
0.0
  0
LINE
  5
1C5
330
A2
100
AcDbEntity
  8
0
 62
     3
100
AcDbLine
 10
1243.536745110403
 20
-294.4790079385239
 30
0.0
 11
1243.536745110403
 21
-301.3531749136042
 31
0.0
  0
LINE
  5
1C6
330
A2
100
AcDbEntity
  8
0
 62
     3
100
AcDbLine
 10
1240.794331331752
 20
-302.4790079385239
 30
0.0
 11
1257.209503774451
 21
-302.4790079385239
 31
0.0
  0
LINE
  5
1C7
330
A2
100
AcDbEntity
  8
0
 62
     3
100
AcDbLine
 10
1259.951917553101
 20
-294.4790079385239
 30
0.0
 11
1259.951917553101
 21
-301.3531749136042
 31
0.0
  0
LINE
  5
1C8
330
A2
100
AcDbEntity
  8
0
 62
     3
100
AcDbLine
 10
1254.4670899958
 20
-294.4790079385239
 30
0.0
 11
1254.4670899958
 21
-301.3531749136042
 31
0.0
  0
ARC
  5
1C9
330
A2
100
AcDbEntity
  8
0
 62
     3
100
AcDbCircle
 10
1240.794331331752
 20
-298.5759720802715
 30
0.0
 40
3.903035858252559
100
AcDbArc
 50
225.3611192140486
 51
314.638880785949
  0
ARC
  5
1CA
330
A2
100
AcDbEntity
  8
0
 62
     3
100
AcDbCircle
 10
1257.209503774451
 20
-298.5759720802715
 30
0.0
 40
3.903035858252399
100
AcDbArc
 50
225.361119214051
 51
314.6388807859514
  0
ARC
  5
1CB
330
A2
100
AcDbEntity
  8
0
 62
     3
100
AcDbCircle
 10
1249.001917553101
 20
-288.6511981571176
 30
0.0
 40
13.8278097814063
100
AcDbArc
 50
246.7196482575294
 51
293.2803517424706
  0
LINE
  5
1CC
330
A2
100
AcDbEntity
  8
0
 62
     3
100
AcDbLine
 10
1261.001917553101
 20
-291.9790079385239
 30
0.0
 11
1261.001917553101
 21
-294.4790079385239
 31
0.0
  0
LINE
  5
1CD
330
A2
100
AcDbEntity
  8
0
 62
     3
100
AcDbLine
 10
1237.001917553101
 20
-291.9790079385239
 30
0.0
 11
1261.001917553101
 21
-291.9790079385239
 31
0.0
  0
LINE
  5
1CE
330
A2
100
AcDbEntity
  8
0
 62
     3
100
AcDbLine
 10
1237.001917553101
 20
-291.9790079385239
 30
0.0
 11
1237.001917553101
 21
-294.4790079385239
 31
0.0
  0
LINE
  5
1CF
330
A2
100
AcDbEntity
  8
0
 62
     3
100
AcDbLine
 10
1237.001917553101
 20
-294.4790079385239
 30
0.0
 11
1261.001917553101
 21
-294.4790079385239
 31
0.0
  0
ENDBLK
  5
A4
330
A2
100
AcDbEntity
  8
0
100
AcDbBlockEnd
  0
BLOCK
  5
A6
330
A5
100
AcDbEntity
  8
0
100
AcDbBlockBegin
  2
DC_GROUP_22
 70
     0
 71
     0
 10
0.0
 20
0.0
 30
0.0
  3
DC_GROUP_22
  1

  0
LINE
  5
1D0
330
A5
100
AcDbEntity
  8
0
 62
     3
100
AcDbLine
 10
1854.001917553099
 20
-832.9790079385241
 30
0.0
 11
1854.001917553099
 21
-800.9790079385355
 31
0.0
  0
LINE
  5
1D1
330
A5
100
AcDbEntity
  8
0
 62
     3
100
AcDbLine
 10
1824.001917553098
 20
-832.9790079385241
 30
0.0
 11
1824.001917553098
 21
-800.9790079385355
 31
0.0
  0
LINE
  5
1D2
330
A5
100
AcDbEntity
  8
0
 62
     4
100
AcDbLine
 10
1852.107417553098
 20
-832.9790079385241
 30
0.0
 11
1852.107417553098
 21
-800.9790079385355
 31
0.0
  0
LINE
  5
1D3
330
A5
100
AcDbEntity
  8
0
 62
     4
100
AcDbLine
 10
1825.896417553099
 20
-832.9790079385241
 30
0.0
 11
1825.896417553099
 21
-800.9790079385355
 31
0.0
  0
ENDBLK
  5
A7
330
A5
100
AcDbEntity
  8
0
100
AcDbBlockEnd
  0
BLOCK
  5
A9
330
A8
100
AcDbEntity
  8
0
100
AcDbBlockBegin
  2
DC_GROUP_23
 70
     0
 71
     0
 10
0.0
 20
0.0
 30
0.0
  3
DC_GROUP_23
  1

  0
LINE
  5
1D4
330
A8
100
AcDbEntity
  8
0
 62
     3
100
AcDbLine
 10
1938.051917553101
 20
-294.4790079385239
 30
0.0
 11
1938.051917553101
 21
-301.3531749136042
 31
0.0
  0
LINE
  5
1D5
330
A8
100
AcDbEntity
  8
0
 62
     3
100
AcDbLine
 10
1943.536745110403
 20
-294.4790079385239
 30
0.0
 11
1943.536745110403
 21
-301.3531749136042
 31
0.0
  0
LINE
  5
1D6
330
A8
100
AcDbEntity
  8
0
 62
     3
100
AcDbLine
 10
1940.794331331752
 20
-302.4790079385239
 30
0.0
 11
1957.209503774451
 21
-302.4790079385239
 31
0.0
  0
LINE
  5
1D7
330
A8
100
AcDbEntity
  8
0
 62
     3
100
AcDbLine
 10
1959.951917553101
 20
-294.4790079385239
 30
0.0
 11
1959.951917553101
 21
-301.3531749136042
 31
0.0
  0
LINE
  5
1D8
330
A8
100
AcDbEntity
  8
0
 62
     3
100
AcDbLine
 10
1954.4670899958
 20
-294.4790079385239
 30
0.0
 11
1954.4670899958
 21
-301.3531749136042
 31
0.0
  0
ARC
  5
1D9
330
A8
100
AcDbEntity
  8
0
 62
     3
100
AcDbCircle
 10
1940.794331331752
 20
-298.5759720802715
 30
0.0
 40
3.903035858252559
100
AcDbArc
 50
225.3611192140486
 51
314.638880785949
  0
ARC
  5
1DA
330
A8
100
AcDbEntity
  8
0
 62
     3
100
AcDbCircle
 10
1957.209503774451
 20
-298.5759720802715
 30
0.0
 40
3.903035858252399
100
AcDbArc
 50
225.361119214051
 51
314.6388807859514
  0
ARC
  5
1DB
330
A8
100
AcDbEntity
  8
0
 62
     3
100
AcDbCircle
 10
1949.001917553101
 20
-288.6511981571176
 30
0.0
 40
13.8278097814063
100
AcDbArc
 50
246.7196482575294
 51
293.2803517424706
  0
LINE
  5
1DC
330
A8
100
AcDbEntity
  8
0
 62
     3
100
AcDbLine
 10
1961.001917553101
 20
-291.9790079385239
 30
0.0
 11
1961.001917553101
 21
-294.4790079385239
 31
0.0
  0
LINE
  5
1DD
330
A8
100
AcDbEntity
  8
0
 62
     3
100
AcDbLine
 10
1937.001917553101
 20
-291.9790079385239
 30
0.0
 11
1961.001917553101
 21
-291.9790079385239
 31
0.0
  0
LINE
  5
1DE
330
A8
100
AcDbEntity
  8
0
 62
     3
100
AcDbLine
 10
1937.001917553101
 20
-291.9790079385239
 30
0.0
 11
1937.001917553101
 21
-294.4790079385239
 31
0.0
  0
LINE
  5
1DF
330
A8
100
AcDbEntity
  8
0
 62
     3
100
AcDbLine
 10
1937.001917553101
 20
-294.4790079385239
 30
0.0
 11
1961.001917553101
 21
-294.4790079385239
 31
0.0
  0
ENDBLK
  5
AA
330
A8
100
AcDbEntity
  8
0
100
AcDbBlockEnd
  0
BLOCK
  5
AC
330
AB
100
AcDbEntity
  8
0
100
AcDbBlockBegin
  2
DC_GROUP_24
 70
     0
 71
     0
 10
0.0
 20
0.0
 30
0.0
  3
DC_GROUP_24
  1

  0
LINE
  5
1E0
330
AB
100
AcDbEntity
  8
0
 62
     3
100
AcDbLine
 10
1739.951917553095
 20
-294.4790079385239
 30
0.0
 11
1739.951917553095
 21
-301.3531749136042
 31
0.0
  0
LINE
  5
1E1
330
AB
100
AcDbEntity
  8
0
 62
     3
100
AcDbLine
 10
1734.467089995794
 20
-294.4790079385239
 30
0.0
 11
1734.467089995794
 21
-301.3531749136042
 31
0.0
  0
LINE
  5
1E2
330
AB
100
AcDbEntity
  8
0
 62
     3
100
AcDbLine
 10
1737.209503774445
 20
-302.4790079385239
 30
0.0
 11
1720.794331331746
 21
-302.4790079385239
 31
0.0
  0
LINE
  5
1E3
330
AB
100
AcDbEntity
  8
0
 62
     3
100
AcDbLine
 10
1718.051917553095
 20
-294.4790079385239
 30
0.0
 11
1718.051917553095
 21
-301.3531749136042
 31
0.0
  0
LINE
  5
1E4
330
AB
100
AcDbEntity
  8
0
 62
     3
100
AcDbLine
 10
1723.536745110397
 20
-294.4790079385239
 30
0.0
 11
1723.536745110397
 21
-301.3531749136042
 31
0.0
  0
ARC
  5
1E5
330
AB
100
AcDbEntity
  8
0
 62
     3
100
AcDbCircle
 10
1737.209503774445
 20
-298.5759720802715
 30
0.0
 40
3.903035858252559
100
AcDbArc
 50
225.361119214051
 51
314.6388807859514
  0
ARC
  5
1E6
330
AB
100
AcDbEntity
  8
0
 62
     3
100
AcDbCircle
 10
1720.794331331746
 20
-298.5759720802715
 30
0.0
 40
3.903035858252399
100
AcDbArc
 50
225.3611192140486
 51
314.638880785949
  0
ARC
  5
1E7
330
AB
100
AcDbEntity
  8
0
 62
     3
100
AcDbCircle
 10
1729.001917553095
 20
-288.6511981571176
 30
0.0
 40
13.8278097814063
100
AcDbArc
 50
246.7196482575294
 51
293.2803517424706
  0
LINE
  5
1E8
330
AB
100
AcDbEntity
  8
0
 62
     3
100
AcDbLine
 10
1717.001917553095
 20
-291.9790079385239
 30
0.0
 11
1717.001917553095
 21
-294.4790079385239
 31
0.0
  0
LINE
  5
1E9
330
AB
100
AcDbEntity
  8
0
 62
     3
100
AcDbLine
 10
1741.001917553095
 20
-291.9790079385239
 30
0.0
 11
1717.001917553095
 21
-291.9790079385239
 31
0.0
  0
LINE
  5
1EA
330
AB
100
AcDbEntity
  8
0
 62
     3
100
AcDbLine
 10
1741.001917553095
 20
-291.9790079385239
 30
0.0
 11
1741.001917553095
 21
-294.4790079385239
 31
0.0
  0
LINE
  5
1EB
330
AB
100
AcDbEntity
  8
0
 62
     3
100
AcDbLine
 10
1741.001917553095
 20
-294.4790079385239
 30
0.0
 11
1717.001917553095
 21
-294.4790079385239
 31
0.0
  0
ENDBLK
  5
AD
330
AB
100
AcDbEntity
  8
0
100
AcDbBlockEnd
  0
BLOCK
  5
AF
330
AE
100
AcDbEntity
  8
0
100
AcDbBlockBegin
  2
DA_IMAGEDIMGROUP_10
 70
     0
 71
     0
 10
0.0
 20
0.0
 30
0.0
  3
DA_IMAGEDIMGROUP_10
  1

  0
LINE
  5
1EC
330
AE
100
AcDbEntity
  8
0
 62
     9
100
AcDbLine
 10
1239.001917553098
 20
-983.9790079385241
 30
0.0
 11
1739.001917553098
 21
-983.9790079385241
 31
0.0
  0
INSERT
  5
1ED
330
AE
100
AcDbEntity
  8
0
 62
     9
100
AcDbBlockReference
  2
_OPEN30
 10
1239.001917553098
 20
-983.9790079385241
 30
0.0
 41
36.00003345389238
 42
35.99987128774157
 50
180.0
  0
INSERT
  5
1EE
330
AE
100
AcDbEntity
  8
0
 62
     9
100
AcDbBlockReference
  2
_OPEN30
 10
1739.001917553098
 20
-983.9790079385241
 30
0.0
 41
36.00003345389238
 42
35.99987128774157
 50
360.0
  0
LINE
  5
1EF
330
AE
100
AcDbEntity
  8
0
 62
     9
100
AcDbLine
 10
1239.001917553098
 20
-793.979007938536
 30
0.0
 11
1239.001917553098
 21
-995.9790079385241
 31
0.0
  0
LINE
  5
1F0
330
AE
100
AcDbEntity
  8
0
 62
     9
100
AcDbLine
 10
1739.001917553098
 20
-793.979007938536
 30
0.0
 11
1739.001917553098
 21
-995.9790079385241
 31
0.0
  0
TEXT
  5
1F1
330
AE
100
AcDbEntity
  8
0
 62
     7
100
AcDbText
 10
1438.601917553098
 20
-971.9790079385241
 30
0.0
 40
42.0
  1
500
 41
0.8000000000000015
  7
FDASTYLE1
 72
     5
 11
1539.401917553098
 21
-971.9790079385241
 31
0.0
100
AcDbText
  0
ENDBLK
  5
B0
330
AE
100
AcDbEntity
  8
0
100
AcDbBlockEnd
  0
BLOCK
  5
B2
330
B1
100
AcDbEntity
  8
0
100
AcDbBlockBegin
  2
DA_IMAGEDIMGROUP_11
 70
     0
 71
     0
 10
0.0
 20
0.0
 30
0.0
  3
DA_IMAGEDIMGROUP_11
  1

  0
LINE
  5
1F2
330
B1
100
AcDbEntity
  8
0
 62
     9
100
AcDbLine
 10
1139.001917553098
 20
-1088.503510531595
 30
0.0
 11
1839.001917553098
 21
-1088.503510531595
 31
0.0
  0
INSERT
  5
1F3
330
B1
100
AcDbEntity
  8
0
 62
     9
100
AcDbBlockReference
  2
_OPEN30
 10
1139.001917553098
 20
-1088.503510531595
 30
0.0
 41
36.00003345389238
 42
35.99987128774157
 50
180.0
  0
INSERT
  5
1F4
330
B1
100
AcDbEntity
  8
0
 62
     9
100
AcDbBlockReference
  2
_OPEN30
 10
1839.001917553098
 20
-1088.503510531595
 30
0.0
 41
36.00003345389238
 42
35.99987128774157
 50
360.0
  0
LINE
  5
1F5
330
B1
100
AcDbEntity
  8
0
 62
     9
100
AcDbLine
 10
1139.001917553098
 20
-887.9790079385241
 30
0.0
 11
1139.001917553098
 21
-1100.503510531595
 31
0.0
  0
LINE
  5
1F6
330
B1
100
AcDbEntity
  8
0
 62
     9
100
AcDbLine
 10
1839.001917553098
 20
-887.9790079385241
 30
0.0
 11
1839.001917553098
 21
-1100.503510531595
 31
0.0
  0
TEXT
  5
1F7
330
B1
100
AcDbEntity
  8
0
 62
     7
100
AcDbText
 10
1438.601917553098
 20
-1076.503510531595
 30
0.0
 40
42.0
  1
700
 41
0.8000000000000015
  7
FDASTYLE1
 72
     5
 11
1539.401917553098
 21
-1076.503510531595
 31
0.0
100
AcDbText
  0
ENDBLK
  5
B3
330
B1
100
AcDbEntity
  8
0
100
AcDbBlockEnd
  0
BLOCK
  5
B5
330
B4
100
AcDbEntity
  8
0
100
AcDbBlockBegin
  2
DC_GROUP_25
 70
     0
 71
     0
 10
0.0
 20
0.0
 30
0.0
  3
DC_GROUP_25
  1

  0
LINE
  5
1F8
330
B4
100
AcDbEntity
  8
0
 62
     3
100
AcDbLine
 10
1311.501917553098
 20
-733.5790079385239
 30
0.0
 11
1311.501917553098
 21
-738.3861876154963
 31
0.0
  0
LINE
  5
1F9
330
B4
100
AcDbEntity
  8
0
 62
     3
100
AcDbLine
 10
1307.749140803366
 20
-733.5790079385239
 30
0.0
 11
1307.749140803366
 21
-738.3861876154963
 31
0.0
  0
LINE
  5
1FA
330
B4
100
AcDbEntity
  8
0
 62
     3
100
AcDbLine
 10
1309.625529178232
 20
-739.0790079385239
 30
0.0
 11
1298.378305927965
 21
-739.0790079385239
 31
0.0
  0
LINE
  5
1FB
330
B4
100
AcDbEntity
  8
0
 62
     3
100
AcDbLine
 10
1296.501917553098
 20
-733.5790079385239
 30
0.0
 11
1296.501917553098
 21
-738.3861876154963
 31
0.0
  0
LINE
  5
1FC
330
B4
100
AcDbEntity
  8
0
 62
     3
100
AcDbLine
 10
1300.254694302831
 20
-733.5790079385239
 30
0.0
 11
1300.254694302831
 21
-738.3861876154963
 31
0.0
  0
ARC
  5
1FD
330
B4
100
AcDbEntity
  8
0
 62
     3
100
AcDbCircle
 10
1309.625529178232
 20
-736.1916551860454
 30
0.0
 40
2.887352752478486
100
AcDbArc
 50
229.4686050581028
 51
310.5313949418973
  0
ARC
  5
1FE
330
B4
100
AcDbEntity
  8
0
 62
     3
100
AcDbCircle
 10
1298.378305927965
 20
-736.1916551860454
 30
0.0
 40
2.887352752478486
100
AcDbArc
 50
229.4686050581028
 51
310.5313949418973
  0
ARC
  5
1FF
330
B4
100
AcDbEntity
  8
0
 62
     3
100
AcDbCircle
 10
1304.001917553098
 20
-728.5988866107555
 30
0.0
 40
10.48012132776833
100
AcDbArc
 50
249.0498637736406
 51
290.9501362263594
  0
LINE
  5
200
330
B4
100
AcDbEntity
  8
0
 62
     3
100
AcDbLine
 10
1295.501917553098
 20
-731.9790079385239
 30
0.0
 11
1295.501917553098
 21
-733.5790079385239
 31
0.0
  0
LINE
  5
201
330
B4
100
AcDbEntity
  8
0
 62
     3
100
AcDbLine
 10
1312.501917553098
 20
-731.9790079385239
 30
0.0
 11
1295.501917553098
 21
-731.9790079385239
 31
0.0
  0
LINE
  5
202
330
B4
100
AcDbEntity
  8
0
 62
     3
100
AcDbLine
 10
1312.501917553098
 20
-731.9790079385239
 30
0.0
 11
1312.501917553098
 21
-733.5790079385239
 31
0.0
  0
LINE
  5
203
330
B4
100
AcDbEntity
  8
0
 62
     3
100
AcDbLine
 10
1312.501917553098
 20
-733.5790079385239
 30
0.0
 11
1295.501917553098
 21
-733.5790079385239
 31
0.0
  0
ENDBLK
  5
B6
330
B4
100
AcDbEntity
  8
0
100
AcDbBlockEnd
  0
BLOCK
  5
B8
330
B7
100
AcDbEntity
  8
0
100
AcDbBlockBegin
  2
DC_GROUP_26
 70
     0
 71
     0
 10
0.0
 20
0.0
 30
0.0
  3
DC_GROUP_26
  1

  0
LINE
  5
204
330
B7
100
AcDbEntity
  8
0
 62
     3
100
AcDbLine
 10
1376.501917553098
 20
-733.5790079385239
 30
0.0
 11
1376.501917553098
 21
-738.3861876154963
 31
0.0
  0
LINE
  5
205
330
B7
100
AcDbEntity
  8
0
 62
     3
100
AcDbLine
 10
1380.254694302831
 20
-733.5790079385239
 30
0.0
 11
1380.254694302831
 21
-738.3861876154963
 31
0.0
  0
LINE
  5
206
330
B7
100
AcDbEntity
  8
0
 62
     3
100
AcDbLine
 10
1378.378305927965
 20
-739.0790079385239
 30
0.0
 11
1389.625529178232
 21
-739.0790079385239
 31
0.0
  0
LINE
  5
207
330
B7
100
AcDbEntity
  8
0
 62
     3
100
AcDbLine
 10
1391.501917553098
 20
-733.5790079385239
 30
0.0
 11
1391.501917553098
 21
-738.3861876154963
 31
0.0
  0
LINE
  5
208
330
B7
100
AcDbEntity
  8
0
 62
     3
100
AcDbLine
 10
1387.749140803366
 20
-733.5790079385239
 30
0.0
 11
1387.749140803366
 21
-738.3861876154963
 31
0.0
  0
ARC
  5
209
330
B7
100
AcDbEntity
  8
0
 62
     3
100
AcDbCircle
 10
1378.378305927965
 20
-736.1916551860454
 30
0.0
 40
2.887352752478486
100
AcDbArc
 50
229.4686050581028
 51
310.5313949418973
  0
ARC
  5
20A
330
B7
100
AcDbEntity
  8
0
 62
     3
100
AcDbCircle
 10
1389.625529178232
 20
-736.1916551860454
 30
0.0
 40
2.887352752478486
100
AcDbArc
 50
229.4686050581028
 51
310.5313949418973
  0
ARC
  5
20B
330
B7
100
AcDbEntity
  8
0
 62
     3
100
AcDbCircle
 10
1384.001917553098
 20
-728.5988866107555
 30
0.0
 40
10.48012132776833
100
AcDbArc
 50
249.0498637736406
 51
290.9501362263594
  0
LINE
  5
20C
330
B7
100
AcDbEntity
  8
0
 62
     3
100
AcDbLine
 10
1392.501917553098
 20
-731.9790079385239
 30
0.0
 11
1392.501917553098
 21
-733.5790079385239
 31
0.0
  0
LINE
  5
20D
330
B7
100
AcDbEntity
  8
0
 62
     3
100
AcDbLine
 10
1375.501917553098
 20
-731.9790079385239
 30
0.0
 11
1392.501917553098
 21
-731.9790079385239
 31
0.0
  0
LINE
  5
20E
330
B7
100
AcDbEntity
  8
0
 62
     3
100
AcDbLine
 10
1375.501917553098
 20
-731.9790079385239
 30
0.0
 11
1375.501917553098
 21
-733.5790079385239
 31
0.0
  0
LINE
  5
20F
330
B7
100
AcDbEntity
  8
0
 62
     3
100
AcDbLine
 10
1375.501917553098
 20
-733.5790079385239
 30
0.0
 11
1392.501917553098
 21
-733.5790079385239
 31
0.0
  0
ENDBLK
  5
B9
330
B7
100
AcDbEntity
  8
0
100
AcDbBlockEnd
  0
BLOCK
  5
BB
330
BA
100
AcDbEntity
  8
0
100
AcDbBlockBegin
  2
DA_IMAGEDIMGROUP_12
 70
     0
 71
     0
 10
0.0
 20
0.0
 30
0.0
  3
DA_IMAGEDIMGROUP_12
  1

  0
LINE
  5
210
330
BA
100
AcDbEntity
  8
0
 62
     9
100
AcDbLine
 10
977.0019175530981
 20
-275.9790079385239
 30
0.0
 11
829.6008024072214
 21
-275.9790079385239
 31
0.0
  0
LINE
  5
211
330
BA
100
AcDbEntity
  8
0
 62
     9
100
AcDbLine
 10
1087.001917553098
 20
-875.9790079385241
 30
0.0
 11
829.6008024072214
 21
-875.9790079385241
 31
0.0
  0
LINE
  5
212
330
BA
100
AcDbEntity
  8
0
 62
     9
100
AcDbLine
 10
977.0019175530981
 20
-75.97900793852391
 30
0.0
 11
829.6008024072214
 21
-75.97900793852391
 31
0.0
  0
LINE
  5
213
330
BA
100
AcDbEntity
  8
0
 62
     9
100
AcDbLine
 10
841.6008024072214
 20
-875.9790079385241
 30
0.0
 11
841.6008024072214
 21
-275.9790079385239
 31
0.0
  0
INSERT
  5
214
330
BA
100
AcDbEntity
  8
0
 62
     9
100
AcDbBlockReference
  2
_OPEN30
 10
841.6008024072214
 20
-875.9790079385241
 30
0.0
 41
36.00003345389238
 42
35.99987128774157
 50
270.0
  0
INSERT
  5
215
330
BA
100
AcDbEntity
  8
0
 62
     9
100
AcDbBlockReference
  2
_OPEN30
 10
841.6008024072214
 20
-275.9790079385239
 30
0.0
 41
36.00003345389238
 42
35.99987128774157
 50
90.0
  0
LINE
  5
216
330
BA
100
AcDbEntity
  8
0
 62
     9
100
AcDbLine
 10
841.6008024072214
 20
-275.9790079385239
 30
0.0
 11
841.6008024072214
 21
-75.97900793852391
 31
0.0
  0
INSERT
  5
217
330
BA
100
AcDbEntity
  8
0
 62
     9
100
AcDbBlockReference
  2
_OPEN30
 10
841.6008024072214
 20
-275.9790079385239
 30
0.0
 41
36.00003345389238
 42
35.99987128774157
 50
270.0
  0
INSERT
  5
218
330
BA
100
AcDbEntity
  8
0
 62
     9
100
AcDbBlockReference
  2
_OPEN30
 10
841.6008024072214
 20
-75.97900793852391
 30
0.0
 41
36.00003345389238
 42
35.99987128774157
 50
90.0
  0
TEXT
  5
219
330
BA
100
AcDbEntity
  8
0
 62
     7
100
AcDbText
 10
829.6008024072214
 20
-626.379007938524
 30
0.0
 40
42.0
  1
600
 50
90.0
 41
0.7999999999999996
  7
FDASTYLE1
 72
     5
 11
829.6008024072214
 21
-525.579007938524
 31
0.0
100
AcDbText
  0
TEXT
  5
21A
330
BA
100
AcDbEntity
  8
0
 62
     7
100
AcDbText
 10
829.6008024072214
 20
-226.3790079385239
 30
0.0
 40
42.0
  1
200
 50
90.0
 41
0.7999999999999996
  7
FDASTYLE1
 72
     5
 11
829.6008024072214
 21
-125.5790079385239
 31
0.0
100
AcDbText
  0
ENDBLK
  5
BC
330
BA
100
AcDbEntity
  8
0
100
AcDbBlockEnd
  0
BLOCK
  5
125
330
124
100
AcDbEntity
  8
0
100
AcDbBlockBegin
  2
_OPEN30
 70
     0
 71
     0
 10
0.0
 20
0.0
 30
0.0
  3
_OPEN30
  1

  0
LINE
  5
127
330
124
100
AcDbEntity
  8
0
  6
BYBLOCK
 62
     0
100
AcDbLine
 10
-1.0
 20
0.267949
 30
0.0
 11
0.0
 21
0.0
 31
0.0
  0
LINE
  5
128
330
124
100
AcDbEntity
  8
0
  6
BYBLOCK
 62
     0
100
AcDbLine
 10
0.0
 20
0.0
 30
0.0
 11
-1.0
 21
-0.267949
 31
0.0
  0
LINE
  5
129
330
124
100
AcDbEntity
  8
0
  6
BYBLOCK
 62
     0
100
AcDbLine
 10
0.0
 20
0.0
 30
0.0
 11
-1.0
 21
0.0
 31
0.0
  0
ENDBLK
  5
126
330
124
100
AcDbEntity
  8
0
100
AcDbBlockEnd
  0
ENDSEC
  0
SECTION
  2
ENTITIES
  0
INSERT
  5
21B
330
1F
100
AcDbEntity
  8
0
  6
CONTINUOUS
100
AcDbBlockReference
  2
DC_GROUP_1
 10
0.0
 20
0.0
 30
0.0
  0
INSERT
  5
21C
330
1F
100
AcDbEntity
  8
0
  6
CONTINUOUS
100
AcDbBlockReference
  2
DC_GROUP_6
 10
0.0
 20
0.0
 30
0.0
  0
INSERT
  5
21D
330
1F
100
AcDbEntity
  8
0
  6
CONTINUOUS
100
AcDbBlockReference
  2
DC_GROUP_7
 10
0.0
 20
0.0
 30
0.0
  0
INSERT
  5
21E
330
1F
100
AcDbEntity
  8
0
  6
CONTINUOUS
100
AcDbBlockReference
  2
DC_GROUP_8
 10
0.0
 20
0.0
 30
0.0
  0
INSERT
  5
21F
330
1F
100
AcDbEntity
  8
0
  6
CONTINUOUS
100
AcDbBlockReference
  2
DC_GROUP_9
 10
0.0
 20
0.0
 30
0.0
  0
INSERT
  5
220
330
1F
100
AcDbEntity
  8
0
  6
CONTINUOUS
100
AcDbBlockReference
  2
DC_GROUP_10
 10
0.0
 20
0.0
 30
0.0
  0
INSERT
  5
221
330
1F
100
AcDbEntity
  8
0
  6
CONTINUOUS
100
AcDbBlockReference
  2
DC_GROUP_11
 10
0.0
 20
0.0
 30
0.0
  0
INSERT
  5
222
330
1F
100
AcDbEntity
  8
0
  6
CONTINUOUS
100
AcDbBlockReference
  2
DA_IMAGEDIMGROUP_1
 10
0.0
 20
0.0
 30
0.0
  0
INSERT
  5
223
330
1F
100
AcDbEntity
  8
0
  6
CONTINUOUS
100
AcDbBlockReference
  2
DA_IMAGEDIMGROUP_2
 10
0.0
 20
0.0
 30
0.0
  0
INSERT
  5
224
330
1F
100
AcDbEntity
  8
0
  6
CONTINUOUS
100
AcDbBlockReference
  2
DA_IMAGEDIMGROUP_3
 10
0.0
 20
0.0
 30
0.0
  0
INSERT
  5
225
330
1F
100
AcDbEntity
  8
0
  6
CONTINUOUS
100
AcDbBlockReference
  2
DA_IMAGEDIMGROUP_4
 10
0.0
 20
0.0
 30
0.0
  0
INSERT
  5
226
330
1F
100
AcDbEntity
  8
0
  6
CONTINUOUS
100
AcDbBlockReference
  2
DC_GROUP_12
 10
0.0
 20
0.0
 30
0.0
  0
INSERT
  5
227
330
1F
100
AcDbEntity
  8
0
  6
CONTINUOUS
100
AcDbBlockReference
  2
DC_GROUP_13
 10
0.0
 20
0.0
 30
0.0
  0
INSERT
  5
228
330
1F
100
AcDbEntity
  8
0
  6
CONTINUOUS
100
AcDbBlockReference
  2
DC_GROUP_14
 10
0.0
 20
0.0
 30
0.0
  0
INSERT
  5
229
330
1F
100
AcDbEntity
  8
0
  6
CONTINUOUS
100
AcDbBlockReference
  2
DC_GROUP_15
 10
0.0
 20
0.0
 30
0.0
  0
INSERT
  5
22A
330
1F
100
AcDbEntity
  8
0
  6
CONTINUOUS
100
AcDbBlockReference
  2
DA_IMAGEDIMGROUP_5
 10
0.0
 20
0.0
 30
0.0
  0
INSERT
  5
22B
330
1F
100
AcDbEntity
  8
0
  6
CONTINUOUS
100
AcDbBlockReference
  2
DA_IMAGEDIMGROUP_6
 10
0.0
 20
0.0
 30
0.0
  0
INSERT
  5
22C
330
1F
100
AcDbEntity
  8
0
  6
CONTINUOUS
100
AcDbBlockReference
  2
DA_IMAGEDIMGROUP_7
 10
0.0
 20
0.0
 30
0.0
  0
INSERT
  5
22D
330
1F
100
AcDbEntity
  8
0
  6
CONTINUOUS
100
AcDbBlockReference
  2
DA_IMAGEDIMGROUP_8
 10
0.0
 20
0.0
 30
0.0
  0
INSERT
  5
22E
330
1F
100
AcDbEntity
  8
0
  6
CONTINUOUS
100
AcDbBlockReference
  2
DA_IMAGEDIMGROUP_9
 10
0.0
 20
0.0
 30
0.0
  0
INSERT
  5
22F
330
1F
100
AcDbEntity
  8
0
  6
CONTINUOUS
100
AcDbBlockReference
  2
DC_GROUP_19
 10
0.0
 20
0.0
 30
0.0
  0
INSERT
  5
230
330
1F
100
AcDbEntity
  8
0
  6
CONTINUOUS
100
AcDbBlockReference
  2
DC_GROUP_20
 10
0.0
 20
0.0
 30
0.0
  0
INSERT
  5
231
330
1F
100
AcDbEntity
  8
0
  6
CONTINUOUS
100
AcDbBlockReference
  2
DC_GROUP_21
 10
0.0
 20
0.0
 30
0.0
  0
INSERT
  5
232
330
1F
100
AcDbEntity
  8
0
  6
CONTINUOUS
100
AcDbBlockReference
  2
DC_GROUP_22
 10
0.0
 20
0.0
 30
0.0
  0
INSERT
  5
233
330
1F
100
AcDbEntity
  8
0
  6
CONTINUOUS
100
AcDbBlockReference
  2
DC_GROUP_23
 10
0.0
 20
0.0
 30
0.0
  0
INSERT
  5
234
330
1F
100
AcDbEntity
  8
0
  6
CONTINUOUS
100
AcDbBlockReference
  2
DC_GROUP_24
 10
0.0
 20
0.0
 30
0.0
  0
INSERT
  5
235
330
1F
100
AcDbEntity
  8
0
  6
CONTINUOUS
100
AcDbBlockReference
  2
DA_IMAGEDIMGROUP_10
 10
0.0
 20
0.0
 30
0.0
  0
INSERT
  5
236
330
1F
100
AcDbEntity
  8
0
  6
CONTINUOUS
100
AcDbBlockReference
  2
DA_IMAGEDIMGROUP_11
 10
0.0
 20
0.0
 30
0.0
  0
INSERT
  5
237
330
1F
100
AcDbEntity
  8
0
  6
CONTINUOUS
100
AcDbBlockReference
  2
DC_GROUP_25
 10
0.0
 20
0.0
 30
0.0
  0
INSERT
  5
238
330
1F
100
AcDbEntity
  8
0
  6
CONTINUOUS
100
AcDbBlockReference
  2
DC_GROUP_26
 10
0.0
 20
0.0
 30
0.0
  0
INSERT
  5
239
330
1F
100
AcDbEntity
  8
0
  6
CONTINUOUS
100
AcDbBlockReference
  2
DA_IMAGEDIMGROUP_12
 10
0.0
 20
0.0
 30
0.0
  0
LINE
  5
23A
330
1F
100
AcDbEntity
  8
0
 62
     3
100
AcDbLine
 10
-1751.508918360215
 20
-75.97900793852391
 30
0.0
 11
-251.5089183602146
 21
-75.97900793852391
 31
0.0
  0
LINE
  5
23B
330
1F
100
AcDbEntity
  8
0
 62
     3
100
AcDbLine
 10
-1751.508918360215
 20
-275.9790079385238
 30
0.0
 11
-251.5089183602146
 21
-275.9790079385238
 31
0.0
  0
LINE
  5
23C
330
1F
100
AcDbEntity
  8
0
 62
     3
100
AcDbLine
 10
-1751.508918360215
 20
-75.97900793852391
 30
0.0
 11
-1751.508918360215
 21
-275.9790079385239
 31
0.0
  0
LINE
  5
23D
330
1F
100
AcDbEntity
  8
0
 62
     3
100
AcDbLine
 10
-251.5089183602146
 20
-75.97900793852391
 30
0.0
 11
-251.5089183602146
 21
-275.9790079385239
 31
0.0
  0
LINE
  5
23E
330
1F
100
AcDbEntity
  8
0
 62
     3
100
AcDbLine
 10
-1401.508918360215
 20
-717.9790079385239
 30
0.0
 11
-601.5089183602145
 21
-717.9790079385239
 31
0.0
  0
LINE
  5
23F
330
1F
100
AcDbEntity
  8
0
 62
     3
100
AcDbLine
 10
-1401.508918360215
 20
-592.9790079385239
 30
0.0
 11
-601.5089183602145
 21
-592.9790079385239
 31
0.0
  0
LINE
  5
240
330
1F
100
AcDbEntity
  8
0
 62
     3
100
AcDbLine
 10
-1401.508918360215
 20
-406.9790079385238
 30
0.0
 11
-601.5089183602145
 21
-406.9790079385238
 31
0.0
  0
LINE
  5
241
330
1F
100
AcDbEntity
  8
0
 62
     3
100
AcDbLine
 10
-1401.508918360215
 20
-531.9790079385239
 30
0.0
 11
-601.5089183602145
 21
-531.9790079385239
 31
0.0
  0
LINE
  5
242
330
1F
100
AcDbEntity
  8
0
 62
     3
100
AcDbLine
 10
-1751.508918360215
 20
249.0209920614761
 30
0.0
 11
-251.5089183602146
 21
249.0209920614761
 31
0.0
  0
LINE
  5
243
330
1F
100
AcDbEntity
  8
0
 62
     3
100
AcDbLine
 10
-251.5089183602146
 20
1249.020992061476
 30
0.0
 11
-1751.508918360215
 21
1249.020992061476
 31
0.0
  0
LINE
  5
244
330
1F
100
AcDbEntity
  8
0
 62
     3
100
AcDbLine
 10
-1751.508918360215
 20
1249.020992061476
 30
0.0
 11
-1751.508918360215
 21
249.0209920614761
 31
0.0
  0
LINE
  5
245
330
1F
100
AcDbEntity
  8
0
 62
     3
100
AcDbLine
 10
-251.5089183602146
 20
249.0209920614761
 30
0.0
 11
-251.5089183602146
 21
1249.020992061476
 31
0.0
  0
LINE
  5
246
330
1F
100
AcDbEntity
  8
0
 62
     3
100
AcDbLine
 10
-1751.508918360215
 20
249.0209920614762
 30
0.0
 11
-1751.508918360215
 21
1249.020992061476
 31
0.0
  0
LINE
  5
247
330
1F
100
AcDbEntity
  8
0
 62
     3
100
AcDbLine
 10
-969.5089183602117
 20
-315.9790079385238
 30
0.0
 11
-947.5089183602117
 21
-337.9790079385238
 31
0.0
  0
LINE
  5
248
330
1F
100
AcDbEntity
  8
0
 62
     3
100
AcDbLine
 10
-1541.508918360215
 20
-291.9790079385239
 30
0.0
 11
-1541.508918360215
 21
-312.9790079385231
 31
0.0
  0
LINE
  5
249
330
1F
100
AcDbEntity
  8
0
 62
     3
100
AcDbLine
 10
-1461.508918360215
 20
-291.9790079385239
 30
0.0
 11
-1461.508918360215
 21
-312.979007938523
 31
0.0
  0
LINE
  5
24A
330
1F
100
AcDbEntity
  8
0
 62
     3
100
AcDbLine
 10
-1425.258918360215
 20
-317.9790079385364
 30
0.0
 11
-1425.258918360215
 21
-312.9790079385228
 31
0.0
  0
LINE
  5
24B
330
1F
100
AcDbEntity
  8
0
 62
     3
100
AcDbLine
 10
-1577.758918360215
 20
-317.9790079385364
 30
0.0
 11
-1577.758918360215
 21
-312.9790079385232
 31
0.0
  0
LINE
  5
24C
330
1F
100
AcDbEntity
  8
0
 62
     3
100
AcDbLine
 10
-1577.758918360215
 20
-312.9790079385232
 30
0.0
 11
-1425.258918360215
 21
-312.9790079385228
 31
0.0
  0
LINE
  5
24D
330
1F
100
AcDbEntity
  8
0
 62
     3
100
AcDbLine
 10
-1378.508918360215
 20
-357.9790079385364
 30
0.0
 11
-1378.508918360215
 21
-361.9790079385364
 31
0.0
  0
LINE
  5
24E
330
1F
100
AcDbEntity
  8
0
 62
     3
100
AcDbLine
 10
-1624.508918360215
 20
-357.9790079385364
 30
0.0
 11
-1624.508918360215
 21
-361.9790079385364
 31
0.0
  0
LINE
  5
24F
330
1F
100
AcDbEntity
  8
0
 62
     3
100
AcDbLine
 10
-1626.508918360215
 20
-357.9790079385364
 30
0.0
 11
-1376.508918360215
 21
-357.9790079385364
 31
0.0
  0
LINE
  5
250
330
1F
100
AcDbEntity
  8
0
 62
     3
100
AcDbLine
 10
-1626.508918360215
 20
-317.9790079385364
 30
0.0
 11
-1626.508918360215
 21
-357.9790079385364
 31
0.0
  0
LINE
  5
251
330
1F
100
AcDbEntity
  8
0
 62
     3
100
AcDbLine
 10
-1376.508918360215
 20
-317.9790079385364
 30
0.0
 11
-1376.508918360215
 21
-357.9790079385364
 31
0.0
  0
LINE
  5
252
330
1F
100
AcDbEntity
  8
0
 62
     3
100
AcDbLine
 10
-1376.508918360215
 20
-317.9790079385364
 30
0.0
 11
-1626.508918360215
 21
-317.9790079385364
 31
0.0
  0
LINE
  5
253
330
1F
100
AcDbEntity
  8
0
 62
     3
100
AcDbLine
 10
-1376.508918360215
 20
-361.979007938536
 30
0.0
 11
-1626.508918360215
 21
-361.9790079385355
 31
0.0
  0
LINE
  5
254
330
1F
100
AcDbEntity
  8
0
 62
     3
100
AcDbLine
 10
-1626.508918360215
 20
-386.9790079385355
 30
0.0
 11
-1376.508918360215
 21
-386.979007938536
 31
0.0
  0
LINE
  5
255
330
1F
100
AcDbEntity
  8
0
 62
     3
100
AcDbLine
 10
-1376.508918360215
 20
-386.9790079385357
 30
0.0
 11
-1376.508918360215
 21
-361.979007938536
 31
0.0
  0
LINE
  5
256
330
1F
100
AcDbEntity
  8
0
 62
     3
100
AcDbLine
 10
-1626.508918360215
 20
-361.9790079385355
 30
0.0
 11
-1626.508918360215
 21
-386.9790079385355
 31
0.0
  0
LINE
  5
257
330
1F
100
AcDbEntity
  8
0
 62
     3
100
AcDbLine
 10
-1626.508918360215
 20
-291.9790079385239
 30
0.0
 11
-1376.508918360215
 21
-291.9790079385239
 31
0.0
  0
LINE
  5
258
330
1F
100
AcDbEntity
  8
0
 62
     3
100
AcDbLine
 10
-1626.508918360215
 20
-275.9790079385239
 30
0.0
 11
-1626.508918360215
 21
-291.9790079385239
 31
0.0
  0
LINE
  5
259
330
1F
100
AcDbEntity
  8
0
 62
     3
100
AcDbLine
 10
-1376.508918360215
 20
-291.9790079385239
 30
0.0
 11
-1376.508918360215
 21
-275.9790079385239
 31
0.0
  0
LINE
  5
25A
330
1F
100
AcDbEntity
  8
0
 62
     3
100
AcDbLine
 10
-1601.508918360215
 20
-386.9790079385363
 30
0.0
 11
-1601.508918360215
 21
-781.979007938536
 31
0.0
  0
LINE
  5
25B
330
1F
100
AcDbEntity
  8
0
 62
     3
100
AcDbLine
 10
-1401.508918360215
 20
-386.9790079385363
 30
0.0
 11
-1401.508918360215
 21
-781.979007938536
 31
0.0
  0
LINE
  5
25C
330
1F
100
AcDbEntity
  8
0
 62
     3
100
AcDbLine
 10
-1601.508918360215
 20
-781.979007938536
 30
0.0
 11
-1401.508918360215
 21
-781.979007938536
 31
0.0
  0
LINE
  5
25D
330
1F
100
AcDbEntity
  8
0
 62
     3
100
AcDbLine
 10
-1541.508918360215
 20
-867.9790079385241
 30
0.0
 11
-1541.508918360215
 21
-875.9790079385241
 31
0.0
  0
LINE
  5
25E
330
1F
100
AcDbEntity
  8
0
 62
     3
100
AcDbLine
 10
-1461.508918360215
 20
-875.9790079385241
 30
0.0
 11
-1541.508918360215
 21
-875.9790079385241
 31
0.0
  0
LINE
  5
25F
330
1F
100
AcDbEntity
  8
0
 62
     3
100
AcDbLine
 10
-1541.508918360215
 20
-867.9790079385241
 30
0.0
 11
-1461.508918360215
 21
-867.9790079385241
 31
0.0
  0
LINE
  5
260
330
1F
100
AcDbEntity
  8
0
 62
     3
100
AcDbLine
 10
-1461.508918360215
 20
-867.9790079385241
 30
0.0
 11
-1461.508918360215
 21
-875.9790079385241
 31
0.0
  0
LINE
  5
261
330
1F
100
AcDbEntity
  8
0
 62
     3
100
AcDbLine
 10
-1541.508918360215
 20
-867.9790079385241
 30
0.0
 11
-1524.008918360215
 21
-852.9790079385241
 31
0.0
  0
LINE
  5
262
330
1F
100
AcDbEntity
  8
0
 62
     3
100
AcDbLine
 10
-1479.008918360215
 20
-852.9790079385241
 30
0.0
 11
-1461.508918360215
 21
-867.9790079385241
 31
0.0
  0
LINE
  5
263
330
1F
100
AcDbEntity
  8
0
 62
     3
100
AcDbLine
 10
-1524.008918360215
 20
-852.9790079385241
 30
0.0
 11
-1479.008918360215
 21
-852.9790079385241
 31
0.0
  0
LINE
  5
264
330
1F
100
AcDbEntity
  8
0
 62
     3
100
AcDbLine
 10
-1474.958918360213
 20
-832.9790079385241
 30
0.0
 11
-1528.058918360214
 21
-832.9790079385241
 31
0.0
  0
LINE
  5
265
330
1F
100
AcDbEntity
  8
0
 62
     3
100
AcDbLine
 10
-1481.598446455896
 20
-852.9790079385241
 30
0.0
 11
-1521.419390264534
 21
-852.9790079385241
 31
0.0
  0
ARC
  5
266
330
1F
100
AcDbEntity
  8
0
 62
     3
100
AcDbCircle
 10
-1481.598446455896
 20
-843.2749236475102
 30
0.0
 40
9.704084291014084
100
AcDbArc
 50
226.8273275017968
 51
313.1726724982032
  0
ARC
  5
267
330
1F
100
AcDbEntity
  8
0
 62
     3
100
AcDbCircle
 10
-1521.419390264534
 20
-843.2749236475102
 30
0.0
 40
9.704084291014084
100
AcDbArc
 50
226.8273275017968
 51
313.1726724982032
  0
ARC
  5
268
330
1F
100
AcDbEntity
  8
0
 62
     3
100
AcDbCircle
 10
-1501.508918360215
 20
-818.1440814845098
 30
0.0
 40
34.83492645401438
100
AcDbArc
 50
247.6064304957075
 51
292.3935695042925
  0
LINE
  5
269
330
1F
100
AcDbEntity
  8
0
 62
     3
100
AcDbLine
 10
-1528.058918360214
 20
-832.9790079385241
 30
0.0
 11
-1528.058918360214
 21
-850.3520642137114
 31
0.0
  0
LINE
  5
26A
330
1F
100
AcDbEntity
  8
0
 62
     3
100
AcDbLine
 10
-1514.779862168853
 20
-832.9790079385241
 30
0.0
 11
-1514.779862168853
 21
-850.3520642137114
 31
0.0
  0
LINE
  5
26B
330
1F
100
AcDbEntity
  8
0
 62
     3
100
AcDbLine
 10
-1488.237974551576
 20
-850.3520642137114
 30
0.0
 11
-1488.237974551576
 21
-832.9790079385241
 31
0.0
  0
LINE
  5
26C
330
1F
100
AcDbEntity
  8
0
 62
     3
100
AcDbLine
 10
-1474.958918360213
 20
-832.9790079385241
 30
0.0
 11
-1474.958918360213
 21
-850.3520642137114
 31
0.0
  0
LINE
  5
26D
330
1F
100
AcDbEntity
  8
0
 62
     3
100
AcDbLine
 10
-1474.958918360213
 20
-781.979007938536
 30
0.0
 11
-1474.958918360213
 21
-798.3520642137228
 31
0.0
  0
LINE
  5
26E
330
1F
100
AcDbEntity
  8
0
 62
     3
100
AcDbLine
 10
-1488.237974551576
 20
-798.3520642137228
 30
0.0
 11
-1488.237974551576
 21
-781.979007938536
 31
0.0
  0
LINE
  5
26F
330
1F
100
AcDbEntity
  8
0
 62
     3
100
AcDbLine
 10
-1481.598446455896
 20
-800.9790079385355
 30
0.0
 11
-1521.419390264534
 21
-800.9790079385355
 31
0.0
  0
LINE
  5
270
330
1F
100
AcDbEntity
  8
0
 62
     3
100
AcDbLine
 10
-1528.058918360214
 20
-781.9790079385361
 30
0.0
 11
-1528.058918360214
 21
-798.3520642137228
 31
0.0
  0
LINE
  5
271
330
1F
100
AcDbEntity
  8
0
 62
     3
100
AcDbLine
 10
-1514.779862168853
 20
-781.979007938536
 30
0.0
 11
-1514.779862168853
 21
-798.3520642137228
 31
0.0
  0
ARC
  5
272
330
1F
100
AcDbEntity
  8
0
 62
     3
100
AcDbCircle
 10
-1481.598446455896
 20
-791.2749236475215
 30
0.0
 40
9.704084291014084
100
AcDbArc
 50
226.8273275017968
 51
313.1726724982032
  0
ARC
  5
273
330
1F
100
AcDbEntity
  8
0
 62
     3
100
AcDbCircle
 10
-1521.419390264534
 20
-791.2749236475215
 30
0.0
 40
9.704084291014084
100
AcDbArc
 50
226.8273275017968
 51
313.1726724982032
  0
ARC
  5
274
330
1F
100
AcDbEntity
  8
0
 62
     3
100
AcDbCircle
 10
-1501.508918360215
 20
-766.1440814845212
 30
0.0
 40
34.83492645401438
100
AcDbArc
 50
247.6064304957075
 51
292.3935695042925
  0
LINE
  5
275
330
1F
100
AcDbEntity
  8
0
 62
     3
100
AcDbLine
 10
-1479.008918360214
 20
-852.9790079385242
 30
0.0
 11
-1521.419390264534
 21
-852.9790079385242
 31
0.0
  0
LINE
  5
276
330
1F
100
AcDbEntity
  8
0
 62
     3
100
AcDbLine
 10
-461.5089183602142
 20
-291.9790079385239
 30
0.0
 11
-461.5089183602142
 21
-312.9790079385231
 31
0.0
  0
LINE
  5
277
330
1F
100
AcDbEntity
  8
0
 62
     3
100
AcDbLine
 10
-541.5089183602145
 20
-291.9790079385239
 30
0.0
 11
-541.5089183602145
 21
-312.979007938523
 31
0.0
  0
LINE
  5
278
330
1F
100
AcDbEntity
  8
0
 62
     3
100
AcDbLine
 10
-577.7589183602145
 20
-317.9790079385364
 30
0.0
 11
-577.7589183602145
 21
-312.9790079385228
 31
0.0
  0
LINE
  5
279
330
1F
100
AcDbEntity
  8
0
 62
     3
100
AcDbLine
 10
-425.2589183602142
 20
-317.9790079385364
 30
0.0
 11
-425.2589183602142
 21
-312.9790079385232
 31
0.0
  0
LINE
  5
27A
330
1F
100
AcDbEntity
  8
0
 62
     3
100
AcDbLine
 10
-425.2589183602142
 20
-312.9790079385232
 30
0.0
 11
-577.7589183602145
 21
-312.9790079385228
 31
0.0
  0
LINE
  5
27B
330
1F
100
AcDbEntity
  8
0
 62
     3
100
AcDbLine
 10
-624.5089183602145
 20
-357.9790079385364
 30
0.0
 11
-624.5089183602145
 21
-361.9790079385364
 31
0.0
  0
LINE
  5
27C
330
1F
100
AcDbEntity
  8
0
 62
     3
100
AcDbLine
 10
-378.5089183602142
 20
-357.9790079385364
 30
0.0
 11
-378.5089183602142
 21
-361.9790079385364
 31
0.0
  0
LINE
  5
27D
330
1F
100
AcDbEntity
  8
0
 62
     3
100
AcDbLine
 10
-376.5089183602142
 20
-357.9790079385364
 30
0.0
 11
-626.5089183602145
 21
-357.9790079385364
 31
0.0
  0
LINE
  5
27E
330
1F
100
AcDbEntity
  8
0
 62
     3
100
AcDbLine
 10
-376.5089183602142
 20
-317.9790079385364
 30
0.0
 11
-376.5089183602142
 21
-357.9790079385364
 31
0.0
  0
LINE
  5
27F
330
1F
100
AcDbEntity
  8
0
 62
     3
100
AcDbLine
 10
-626.5089183602145
 20
-317.9790079385364
 30
0.0
 11
-626.5089183602145
 21
-357.9790079385364
 31
0.0
  0
LINE
  5
280
330
1F
100
AcDbEntity
  8
0
 62
     3
100
AcDbLine
 10
-626.5089183602145
 20
-317.9790079385364
 30
0.0
 11
-376.5089183602142
 21
-317.9790079385364
 31
0.0
  0
LINE
  5
281
330
1F
100
AcDbEntity
  8
0
 62
     3
100
AcDbLine
 10
-626.5089183602145
 20
-361.979007938536
 30
0.0
 11
-376.5089183602142
 21
-361.9790079385355
 31
0.0
  0
LINE
  5
282
330
1F
100
AcDbEntity
  8
0
 62
     3
100
AcDbLine
 10
-376.5089183602142
 20
-386.9790079385355
 30
0.0
 11
-626.5089183602145
 21
-386.979007938536
 31
0.0
  0
LINE
  5
283
330
1F
100
AcDbEntity
  8
0
 62
     3
100
AcDbLine
 10
-626.5089183602145
 20
-386.9790079385357
 30
0.0
 11
-626.5089183602145
 21
-361.979007938536
 31
0.0
  0
LINE
  5
284
330
1F
100
AcDbEntity
  8
0
 62
     3
100
AcDbLine
 10
-376.5089183602142
 20
-361.9790079385355
 30
0.0
 11
-376.5089183602142
 21
-386.9790079385355
 31
0.0
  0
LINE
  5
285
330
1F
100
AcDbEntity
  8
0
 62
     3
100
AcDbLine
 10
-376.5089183602142
 20
-291.9790079385239
 30
0.0
 11
-626.5089183602145
 21
-291.9790079385239
 31
0.0
  0
LINE
  5
286
330
1F
100
AcDbEntity
  8
0
 62
     3
100
AcDbLine
 10
-376.5089183602142
 20
-275.9790079385239
 30
0.0
 11
-376.5089183602142
 21
-291.9790079385239
 31
0.0
  0
LINE
  5
287
330
1F
100
AcDbEntity
  8
0
 62
     3
100
AcDbLine
 10
-626.5089183602145
 20
-291.9790079385239
 30
0.0
 11
-626.5089183602145
 21
-275.9790079385239
 31
0.0
  0
LINE
  5
288
330
1F
100
AcDbEntity
  8
0
 62
     3
100
AcDbLine
 10
-401.5089183602142
 20
-386.9790079385363
 30
0.0
 11
-401.5089183602142
 21
-781.979007938536
 31
0.0
  0
LINE
  5
289
330
1F
100
AcDbEntity
  8
0
 62
     3
100
AcDbLine
 10
-601.5089183602145
 20
-386.9790079385363
 30
0.0
 11
-601.5089183602145
 21
-781.979007938536
 31
0.0
  0
LINE
  5
28A
330
1F
100
AcDbEntity
  8
0
 62
     3
100
AcDbLine
 10
-401.5089183602142
 20
-781.979007938536
 30
0.0
 11
-601.5089183602145
 21
-781.979007938536
 31
0.0
  0
LINE
  5
28B
330
1F
100
AcDbEntity
  8
0
 62
     3
100
AcDbLine
 10
-461.5089183602142
 20
-867.9790079385241
 30
0.0
 11
-461.5089183602142
 21
-875.9790079385241
 31
0.0
  0
LINE
  5
28C
330
1F
100
AcDbEntity
  8
0
 62
     3
100
AcDbLine
 10
-541.5089183602145
 20
-875.9790079385241
 30
0.0
 11
-461.5089183602142
 21
-875.9790079385241
 31
0.0
  0
LINE
  5
28D
330
1F
100
AcDbEntity
  8
0
 62
     3
100
AcDbLine
 10
-461.5089183602142
 20
-867.9790079385241
 30
0.0
 11
-541.5089183602145
 21
-867.9790079385241
 31
0.0
  0
LINE
  5
28E
330
1F
100
AcDbEntity
  8
0
 62
     3
100
AcDbLine
 10
-541.5089183602145
 20
-867.9790079385241
 30
0.0
 11
-541.5089183602145
 21
-875.9790079385241
 31
0.0
  0
LINE
  5
28F
330
1F
100
AcDbEntity
  8
0
 62
     3
100
AcDbLine
 10
-461.5089183602142
 20
-867.9790079385241
 30
0.0
 11
-479.0089183602142
 21
-852.9790079385241
 31
0.0
  0
LINE
  5
290
330
1F
100
AcDbEntity
  8
0
 62
     3
100
AcDbLine
 10
-524.0089183602145
 20
-852.9790079385241
 30
0.0
 11
-541.5089183602145
 21
-867.9790079385241
 31
0.0
  0
LINE
  5
291
330
1F
100
AcDbEntity
  8
0
 62
     3
100
AcDbLine
 10
-479.0089183602142
 20
-852.9790079385241
 30
0.0
 11
-524.0089183602145
 21
-852.9790079385241
 31
0.0
  0
LINE
  5
292
330
1F
100
AcDbEntity
  8
0
 62
     3
100
AcDbLine
 10
-528.0589183602156
 20
-832.9790079385241
 30
0.0
 11
-474.958918360215
 21
-832.9790079385241
 31
0.0
  0
LINE
  5
293
330
1F
100
AcDbEntity
  8
0
 62
     3
100
AcDbLine
 10
-521.4193902645334
 20
-852.9790079385241
 30
0.0
 11
-481.5984464558953
 21
-852.9790079385241
 31
0.0
  0
ARC
  5
294
330
1F
100
AcDbEntity
  8
0
 62
     3
100
AcDbCircle
 10
-521.4193902645334
 20
-843.2749236475102
 30
0.0
 40
9.704084291014084
100
AcDbArc
 50
226.8273275017968
 51
313.1726724982032
  0
ARC
  5
295
330
1F
100
AcDbEntity
  8
0
 62
     3
100
AcDbCircle
 10
-481.5984464558953
 20
-843.2749236475102
 30
0.0
 40
9.704084291014084
100
AcDbArc
 50
226.8273275017968
 51
313.1726724982032
  0
ARC
  5
296
330
1F
100
AcDbEntity
  8
0
 62
     3
100
AcDbCircle
 10
-501.5089183602145
 20
-818.1440814845098
 30
0.0
 40
34.83492645401438
100
AcDbArc
 50
247.6064304957075
 51
292.3935695042925
  0
LINE
  5
297
330
1F
100
AcDbEntity
  8
0
 62
     3
100
AcDbLine
 10
-474.958918360215
 20
-832.9790079385241
 30
0.0
 11
-474.958918360215
 21
-850.3520642137114
 31
0.0
  0
LINE
  5
298
330
1F
100
AcDbEntity
  8
0
 62
     3
100
AcDbLine
 10
-488.2379745515757
 20
-832.9790079385241
 30
0.0
 11
-488.2379745515757
 21
-850.3520642137114
 31
0.0
  0
LINE
  5
299
330
1F
100
AcDbEntity
  8
0
 62
     3
100
AcDbLine
 10
-514.779862168853
 20
-850.3520642137114
 30
0.0
 11
-514.779862168853
 21
-832.9790079385241
 31
0.0
  0
LINE
  5
29A
330
1F
100
AcDbEntity
  8
0
 62
     3
100
AcDbLine
 10
-528.0589183602156
 20
-832.9790079385241
 30
0.0
 11
-528.0589183602156
 21
-850.3520642137114
 31
0.0
  0
LINE
  5
29B
330
1F
100
AcDbEntity
  8
0
 62
     3
100
AcDbLine
 10
-528.0589183602156
 20
-781.979007938536
 30
0.0
 11
-528.0589183602156
 21
-798.3520642137228
 31
0.0
  0
LINE
  5
29C
330
1F
100
AcDbEntity
  8
0
 62
     3
100
AcDbLine
 10
-514.779862168853
 20
-798.3520642137228
 30
0.0
 11
-514.779862168853
 21
-781.979007938536
 31
0.0
  0
LINE
  5
29D
330
1F
100
AcDbEntity
  8
0
 62
     3
100
AcDbLine
 10
-521.4193902645334
 20
-800.9790079385355
 30
0.0
 11
-481.5984464558953
 21
-800.9790079385355
 31
0.0
  0
LINE
  5
29E
330
1F
100
AcDbEntity
  8
0
 62
     3
100
AcDbLine
 10
-474.958918360215
 20
-781.9790079385361
 30
0.0
 11
-474.958918360215
 21
-798.3520642137228
 31
0.0
  0
LINE
  5
29F
330
1F
100
AcDbEntity
  8
0
 62
     3
100
AcDbLine
 10
-488.2379745515757
 20
-781.979007938536
 30
0.0
 11
-488.2379745515757
 21
-798.3520642137228
 31
0.0
  0
ARC
  5
2A0
330
1F
100
AcDbEntity
  8
0
 62
     3
100
AcDbCircle
 10
-521.4193902645334
 20
-791.2749236475215
 30
0.0
 40
9.704084291014084
100
AcDbArc
 50
226.8273275017968
 51
313.1726724982032
  0
ARC
  5
2A1
330
1F
100
AcDbEntity
  8
0
 62
     3
100
AcDbCircle
 10
-481.5984464558953
 20
-791.2749236475215
 30
0.0
 40
9.704084291014084
100
AcDbArc
 50
226.8273275017968
 51
313.1726724982032
  0
ARC
  5
2A2
330
1F
100
AcDbEntity
  8
0
 62
     3
100
AcDbCircle
 10
-501.5089183602145
 20
-766.1440814845212
 30
0.0
 40
34.83492645401438
100
AcDbArc
 50
247.6064304957075
 51
292.3935695042925
  0
LINE
  5
2A3
330
1F
100
AcDbEntity
  8
0
 62
     3
100
AcDbLine
 10
-524.0089183602147
 20
-852.9790079385242
 30
0.0
 11
-481.5984464558953
 21
-852.9790079385242
 31
0.0
  0
LINE
  5
2A4
330
1F
100
AcDbEntity
  8
0
 62
     3
100
AcDbLine
 10
-1351.508918360215
 20
-717.9790079385239
 30
0.0
 11
-1351.508918360215
 21
-726.9790079385239
 31
0.0
  0
LINE
  5
2A5
330
1F
100
AcDbEntity
  8
0
 62
     3
100
AcDbLine
 10
-1241.508918360215
 20
-726.9790079385239
 30
0.0
 11
-1351.508918360215
 21
-726.9790079385239
 31
0.0
  0
LINE
  5
2A6
330
1F
100
AcDbEntity
  8
0
 62
     3
100
AcDbLine
 10
-1241.508918360215
 20
-717.9790079385239
 30
0.0
 11
-1241.508918360215
 21
-726.9790079385239
 31
0.0
  0
LINE
  5
2A7
330
1F
100
AcDbEntity
  8
0
 62
     3
100
AcDbLine
 10
-651.5089183602145
 20
-717.9790079385239
 30
0.0
 11
-651.5089183602145
 21
-726.9790079385239
 31
0.0
  0
LINE
  5
2A8
330
1F
100
AcDbEntity
  8
0
 62
     3
100
AcDbLine
 10
-761.5089183602145
 20
-726.9790079385239
 30
0.0
 11
-651.5089183602145
 21
-726.9790079385239
 31
0.0
  0
LINE
  5
2A9
330
1F
100
AcDbEntity
  8
0
 62
     3
100
AcDbLine
 10
-761.5089183602145
 20
-717.9790079385239
 30
0.0
 11
-761.5089183602145
 21
-726.9790079385239
 31
0.0
  0
LINE
  5
2AA
330
1F
100
AcDbEntity
  8
0
 62
     3
100
AcDbLine
 10
989.0019175530981
 20
-75.97900793852391
 30
0.0
 11
1989.001917553098
 21
-75.97900793852391
 31
0.0
  0
LINE
  5
2AB
330
1F
100
AcDbEntity
  8
0
 62
     3
100
AcDbLine
 10
989.0019175530981
 20
-275.9790079385239
 30
0.0
 11
1989.001917553098
 21
-275.9790079385239
 31
0.0
  0
LINE
  5
2AC
330
1F
100
AcDbEntity
  8
0
 62
     3
100
AcDbLine
 10
1989.001917553098
 20
-75.97900793852391
 30
0.0
 11
1989.001917553098
 21
-275.9790079385239
 31
0.0
  0
LINE
  5
2AD
330
1F
100
AcDbEntity
  8
0
 62
     3
100
AcDbLine
 10
989.0019175530981
 20
-75.97900793852391
 30
0.0
 11
989.0019175530981
 21
-275.9790079385239
 31
0.0
  0
LINE
  5
2AE
330
1F
100
AcDbEntity
  8
0
 62
     3
100
AcDbLine
 10
1239.001917553098
 20
-592.9790079385239
 30
0.0
 11
1739.001917553098
 21
-592.9790079385239
 31
0.0
  0
LINE
  5
2AF
330
1F
100
AcDbEntity
  8
0
 62
     3
100
AcDbLine
 10
1239.001917553098
 20
-717.9790079385239
 30
0.0
 11
1739.001917553098
 21
-717.9790079385239
 31
0.0
  0
LINE
  5
2B0
330
1F
100
AcDbEntity
  8
0
 62
     3
100
AcDbLine
 10
1239.001917553098
 20
-406.9790079385238
 30
0.0
 11
1475.001917553104
 21
-406.9790079385238
 31
0.0
  0
LINE
  5
2B1
330
1F
100
AcDbEntity
  8
0
 62
     3
100
AcDbLine
 10
1503.001917553104
 20
-406.9790079385238
 30
0.0
 11
1739.001917553098
 21
-406.9790079385238
 31
0.0
  0
LINE
  5
2B2
330
1F
100
AcDbEntity
  8
0
 62
     3
100
AcDbLine
 10
1239.001917553098
 20
-531.9790079385239
 30
0.0
 11
1472.501917553104
 21
-531.9790079385239
 31
0.0
  0
LINE
  5
2B3
330
1F
100
AcDbEntity
  8
0
 62
     3
100
AcDbLine
 10
1505.501917553104
 20
-531.9790079385239
 30
0.0
 11
1739.001917553098
 21
-531.9790079385239
 31
0.0
  0
LINE
  5
2B4
330
1F
100
AcDbEntity
  8
0
 62
     3
100
AcDbLine
 10
1099.001917553098
 20
-291.9790079385239
 30
0.0
 11
1099.001917553098
 21
-312.9790079385231
 31
0.0
  0
LINE
  5
2B5
330
1F
100
AcDbEntity
  8
0
 62
     3
100
AcDbLine
 10
1179.001917553098
 20
-291.9790079385239
 30
0.0
 11
1179.001917553098
 21
-312.979007938523
 31
0.0
  0
LINE
  5
2B6
330
1F
100
AcDbEntity
  8
0
 62
     3
100
AcDbLine
 10
1215.251917553098
 20
-317.9790079385364
 30
0.0
 11
1215.251917553098
 21
-312.9790079385228
 31
0.0
  0
LINE
  5
2B7
330
1F
100
AcDbEntity
  8
0
 62
     3
100
AcDbLine
 10
1062.751917553098
 20
-317.9790079385364
 30
0.0
 11
1062.751917553098
 21
-312.9790079385232
 31
0.0
  0
LINE
  5
2B8
330
1F
100
AcDbEntity
  8
0
 62
     3
100
AcDbLine
 10
1062.751917553098
 20
-312.9790079385232
 30
0.0
 11
1215.251917553098
 21
-312.9790079385228
 31
0.0
  0
LINE
  5
2B9
330
1F
100
AcDbEntity
  8
0
 62
     3
100
AcDbLine
 10
1262.001917553098
 20
-357.9790079385364
 30
0.0
 11
1262.001917553098
 21
-361.9790079385364
 31
0.0
  0
LINE
  5
2BA
330
1F
100
AcDbEntity
  8
0
 62
     3
100
AcDbLine
 10
1016.001917553098
 20
-357.9790079385364
 30
0.0
 11
1016.001917553098
 21
-361.9790079385364
 31
0.0
  0
LINE
  5
2BB
330
1F
100
AcDbEntity
  8
0
 62
     3
100
AcDbLine
 10
1014.001917553098
 20
-357.9790079385364
 30
0.0
 11
1264.001917553098
 21
-357.9790079385364
 31
0.0
  0
LINE
  5
2BC
330
1F
100
AcDbEntity
  8
0
 62
     3
100
AcDbLine
 10
1014.001917553098
 20
-317.9790079385364
 30
0.0
 11
1014.001917553098
 21
-357.9790079385364
 31
0.0
  0
LINE
  5
2BD
330
1F
100
AcDbEntity
  8
0
 62
     3
100
AcDbLine
 10
1264.001917553098
 20
-317.9790079385364
 30
0.0
 11
1264.001917553098
 21
-357.9790079385364
 31
0.0
  0
LINE
  5
2BE
330
1F
100
AcDbEntity
  8
0
 62
     3
100
AcDbLine
 10
1264.001917553098
 20
-317.9790079385364
 30
0.0
 11
1014.001917553098
 21
-317.9790079385364
 31
0.0
  0
LINE
  5
2BF
330
1F
100
AcDbEntity
  8
0
 62
     3
100
AcDbLine
 10
1264.001917553098
 20
-361.979007938536
 30
0.0
 11
1014.001917553098
 21
-361.9790079385355
 31
0.0
  0
LINE
  5
2C0
330
1F
100
AcDbEntity
  8
0
 62
     3
100
AcDbLine
 10
1014.001917553098
 20
-386.9790079385355
 30
0.0
 11
1264.001917553098
 21
-386.979007938536
 31
0.0
  0
LINE
  5
2C1
330
1F
100
AcDbEntity
  8
0
 62
     3
100
AcDbLine
 10
1264.001917553098
 20
-386.9790079385357
 30
0.0
 11
1264.001917553098
 21
-361.979007938536
 31
0.0
  0
LINE
  5
2C2
330
1F
100
AcDbEntity
  8
0
 62
     3
100
AcDbLine
 10
1014.001917553098
 20
-361.9790079385355
 30
0.0
 11
1014.001917553098
 21
-386.9790079385355
 31
0.0
  0
LINE
  5
2C3
330
1F
100
AcDbEntity
  8
0
 62
     3
100
AcDbLine
 10
1014.001917553098
 20
-291.9790079385239
 30
0.0
 11
1264.001917553098
 21
-291.9790079385239
 31
0.0
  0
LINE
  5
2C4
330
1F
100
AcDbEntity
  8
0
 62
     3
100
AcDbLine
 10
1014.001917553098
 20
-275.9790079385239
 30
0.0
 11
1014.001917553098
 21
-291.9790079385239
 31
0.0
  0
LINE
  5
2C5
330
1F
100
AcDbEntity
  8
0
 62
     3
100
AcDbLine
 10
1264.001917553098
 20
-291.9790079385239
 30
0.0
 11
1264.001917553098
 21
-275.9790079385239
 31
0.0
  0
LINE
  5
2C6
330
1F
100
AcDbEntity
  8
0
 62
     3
100
AcDbLine
 10
1039.001917553098
 20
-386.9790079385363
 30
0.0
 11
1039.001917553098
 21
-781.979007938536
 31
0.0
  0
LINE
  5
2C7
330
1F
100
AcDbEntity
  8
0
 62
     3
100
AcDbLine
 10
1239.001917553098
 20
-386.9790079385363
 30
0.0
 11
1239.001917553098
 21
-781.979007938536
 31
0.0
  0
LINE
  5
2C8
330
1F
100
AcDbEntity
  8
0
 62
     3
100
AcDbLine
 10
1039.001917553098
 20
-781.979007938536
 30
0.0
 11
1239.001917553098
 21
-781.979007938536
 31
0.0
  0
LINE
  5
2C9
330
1F
100
AcDbEntity
  8
0
 62
     3
100
AcDbLine
 10
1099.001917553098
 20
-867.9790079385241
 30
0.0
 11
1099.001917553098
 21
-875.9790079385241
 31
0.0
  0
LINE
  5
2CA
330
1F
100
AcDbEntity
  8
0
 62
     3
100
AcDbLine
 10
1179.001917553098
 20
-875.9790079385241
 30
0.0
 11
1099.001917553098
 21
-875.9790079385241
 31
0.0
  0
LINE
  5
2CB
330
1F
100
AcDbEntity
  8
0
 62
     3
100
AcDbLine
 10
1099.001917553098
 20
-867.9790079385241
 30
0.0
 11
1179.001917553098
 21
-867.9790079385241
 31
0.0
  0
LINE
  5
2CC
330
1F
100
AcDbEntity
  8
0
 62
     3
100
AcDbLine
 10
1179.001917553098
 20
-867.9790079385241
 30
0.0
 11
1179.001917553098
 21
-875.9790079385241
 31
0.0
  0
LINE
  5
2CD
330
1F
100
AcDbEntity
  8
0
 62
     3
100
AcDbLine
 10
1099.001917553098
 20
-867.9790079385241
 30
0.0
 11
1116.501917553098
 21
-852.9790079385241
 31
0.0
  0
LINE
  5
2CE
330
1F
100
AcDbEntity
  8
0
 62
     3
100
AcDbLine
 10
1161.501917553098
 20
-852.9790079385241
 30
0.0
 11
1179.001917553098
 21
-867.9790079385241
 31
0.0
  0
LINE
  5
2CF
330
1F
100
AcDbEntity
  8
0
 62
     3
100
AcDbLine
 10
1116.501917553098
 20
-852.9790079385241
 30
0.0
 11
1161.501917553098
 21
-852.9790079385241
 31
0.0
  0
LINE
  5
2D0
330
1F
100
AcDbEntity
  8
0
 62
     3
100
AcDbLine
 10
1165.551917553099
 20
-832.9790079385241
 30
0.0
 11
1112.451917553099
 21
-832.9790079385241
 31
0.0
  0
LINE
  5
2D1
330
1F
100
AcDbEntity
  8
0
 62
     3
100
AcDbLine
 10
1158.912389457417
 20
-852.9790079385241
 30
0.0
 11
1119.091445648779
 21
-852.9790079385241
 31
0.0
  0
ARC
  5
2D2
330
1F
100
AcDbEntity
  8
0
 62
     3
100
AcDbCircle
 10
1158.912389457417
 20
-843.2749236475102
 30
0.0
 40
9.704084291014084
100
AcDbArc
 50
226.8273275017968
 51
313.1726724982032
  0
ARC
  5
2D3
330
1F
100
AcDbEntity
  8
0
 62
     3
100
AcDbCircle
 10
1119.091445648779
 20
-843.2749236475102
 30
0.0
 40
9.704084291014084
100
AcDbArc
 50
226.8273275017968
 51
313.1726724982032
  0
ARC
  5
2D4
330
1F
100
AcDbEntity
  8
0
 62
     3
100
AcDbCircle
 10
1139.001917553098
 20
-818.1440814845098
 30
0.0
 40
34.83492645401438
100
AcDbArc
 50
247.6064304957075
 51
292.3935695042925
  0
LINE
  5
2D5
330
1F
100
AcDbEntity
  8
0
 62
     3
100
AcDbLine
 10
1112.451917553099
 20
-832.9790079385241
 30
0.0
 11
1112.451917553099
 21
-850.3520642137114
 31
0.0
  0
LINE
  5
2D6
330
1F
100
AcDbEntity
  8
0
 62
     3
100
AcDbLine
 10
1125.73097374446
 20
-832.9790079385241
 30
0.0
 11
1125.73097374446
 21
-850.3520642137114
 31
0.0
  0
LINE
  5
2D7
330
1F
100
AcDbEntity
  8
0
 62
     3
100
AcDbLine
 10
1152.272861361737
 20
-850.3520642137114
 30
0.0
 11
1152.272861361737
 21
-832.9790079385241
 31
0.0
  0
LINE
  5
2D8
330
1F
100
AcDbEntity
  8
0
 62
     3
100
AcDbLine
 10
1165.551917553099
 20
-832.9790079385241
 30
0.0
 11
1165.551917553099
 21
-850.3520642137114
 31
0.0
  0
LINE
  5
2D9
330
1F
100
AcDbEntity
  8
0
 62
     3
100
AcDbLine
 10
1165.551917553099
 20
-781.979007938536
 30
0.0
 11
1165.551917553099
 21
-798.3520642137228
 31
0.0
  0
LINE
  5
2DA
330
1F
100
AcDbEntity
  8
0
 62
     3
100
AcDbLine
 10
1152.272861361737
 20
-798.3520642137228
 30
0.0
 11
1152.272861361737
 21
-781.979007938536
 31
0.0
  0
LINE
  5
2DB
330
1F
100
AcDbEntity
  8
0
 62
     3
100
AcDbLine
 10
1158.912389457417
 20
-800.9790079385355
 30
0.0
 11
1119.091445648779
 21
-800.9790079385355
 31
0.0
  0
LINE
  5
2DC
330
1F
100
AcDbEntity
  8
0
 62
     3
100
AcDbLine
 10
1112.451917553099
 20
-781.9790079385361
 30
0.0
 11
1112.451917553099
 21
-798.3520642137228
 31
0.0
  0
LINE
  5
2DD
330
1F
100
AcDbEntity
  8
0
 62
     3
100
AcDbLine
 10
1125.73097374446
 20
-781.979007938536
 30
0.0
 11
1125.73097374446
 21
-798.3520642137228
 31
0.0
  0
ARC
  5
2DE
330
1F
100
AcDbEntity
  8
0
 62
     3
100
AcDbCircle
 10
1158.912389457417
 20
-791.2749236475215
 30
0.0
 40
9.704084291014084
100
AcDbArc
 50
226.8273275017968
 51
313.1726724982032
  0
ARC
  5
2DF
330
1F
100
AcDbEntity
  8
0
 62
     3
100
AcDbCircle
 10
1119.091445648779
 20
-791.2749236475215
 30
0.0
 40
9.704084291014084
100
AcDbArc
 50
226.8273275017968
 51
313.1726724982032
  0
ARC
  5
2E0
330
1F
100
AcDbEntity
  8
0
 62
     3
100
AcDbCircle
 10
1139.001917553098
 20
-766.1440814845212
 30
0.0
 40
34.83492645401438
100
AcDbArc
 50
247.6064304957075
 51
292.3935695042925
  0
LINE
  5
2E1
330
1F
100
AcDbEntity
  8
0
 62
     3
100
AcDbLine
 10
1161.501917553099
 20
-852.9790079385242
 30
0.0
 11
1119.091445648779
 21
-852.9790079385242
 31
0.0
  0
LINE
  5
2E2
330
1F
100
AcDbEntity
  8
0
 62
     3
100
AcDbLine
 10
1879.001917553099
 20
-291.9790079385239
 30
0.0
 11
1879.001917553099
 21
-312.9790079385231
 31
0.0
  0
LINE
  5
2E3
330
1F
100
AcDbEntity
  8
0
 62
     3
100
AcDbLine
 10
1799.001917553098
 20
-291.9790079385239
 30
0.0
 11
1799.001917553098
 21
-312.979007938523
 31
0.0
  0
LINE
  5
2E4
330
1F
100
AcDbEntity
  8
0
 62
     3
100
AcDbLine
 10
1762.751917553098
 20
-317.9790079385364
 30
0.0
 11
1762.751917553098
 21
-312.9790079385228
 31
0.0
  0
LINE
  5
2E5
330
1F
100
AcDbEntity
  8
0
 62
     3
100
AcDbLine
 10
1915.251917553099
 20
-317.9790079385364
 30
0.0
 11
1915.251917553099
 21
-312.9790079385232
 31
0.0
  0
LINE
  5
2E6
330
1F
100
AcDbEntity
  8
0
 62
     3
100
AcDbLine
 10
1915.251917553099
 20
-312.9790079385232
 30
0.0
 11
1762.751917553098
 21
-312.9790079385228
 31
0.0
  0
LINE
  5
2E7
330
1F
100
AcDbEntity
  8
0
 62
     3
100
AcDbLine
 10
1716.001917553098
 20
-357.9790079385364
 30
0.0
 11
1716.001917553098
 21
-361.9790079385364
 31
0.0
  0
LINE
  5
2E8
330
1F
100
AcDbEntity
  8
0
 62
     3
100
AcDbLine
 10
1962.001917553099
 20
-357.9790079385364
 30
0.0
 11
1962.001917553099
 21
-361.9790079385364
 31
0.0
  0
LINE
  5
2E9
330
1F
100
AcDbEntity
  8
0
 62
     3
100
AcDbLine
 10
1964.001917553099
 20
-357.9790079385364
 30
0.0
 11
1714.001917553098
 21
-357.9790079385364
 31
0.0
  0
LINE
  5
2EA
330
1F
100
AcDbEntity
  8
0
 62
     3
100
AcDbLine
 10
1964.001917553099
 20
-317.9790079385364
 30
0.0
 11
1964.001917553099
 21
-357.9790079385364
 31
0.0
  0
LINE
  5
2EB
330
1F
100
AcDbEntity
  8
0
 62
     3
100
AcDbLine
 10
1714.001917553098
 20
-317.9790079385364
 30
0.0
 11
1714.001917553098
 21
-357.9790079385364
 31
0.0
  0
LINE
  5
2EC
330
1F
100
AcDbEntity
  8
0
 62
     3
100
AcDbLine
 10
1714.001917553098
 20
-317.9790079385364
 30
0.0
 11
1964.001917553099
 21
-317.9790079385364
 31
0.0
  0
LINE
  5
2ED
330
1F
100
AcDbEntity
  8
0
 62
     3
100
AcDbLine
 10
1714.001917553098
 20
-361.979007938536
 30
0.0
 11
1964.001917553099
 21
-361.9790079385355
 31
0.0
  0
LINE
  5
2EE
330
1F
100
AcDbEntity
  8
0
 62
     3
100
AcDbLine
 10
1964.001917553099
 20
-386.9790079385355
 30
0.0
 11
1714.001917553098
 21
-386.979007938536
 31
0.0
  0
LINE
  5
2EF
330
1F
100
AcDbEntity
  8
0
 62
     3
100
AcDbLine
 10
1714.001917553098
 20
-386.9790079385357
 30
0.0
 11
1714.001917553098
 21
-361.979007938536
 31
0.0
  0
LINE
  5
2F0
330
1F
100
AcDbEntity
  8
0
 62
     3
100
AcDbLine
 10
1964.001917553099
 20
-361.9790079385355
 30
0.0
 11
1964.001917553099
 21
-386.9790079385355
 31
0.0
  0
LINE
  5
2F1
330
1F
100
AcDbEntity
  8
0
 62
     3
100
AcDbLine
 10
1964.001917553099
 20
-291.9790079385239
 30
0.0
 11
1714.001917553098
 21
-291.9790079385239
 31
0.0
  0
LINE
  5
2F2
330
1F
100
AcDbEntity
  8
0
 62
     3
100
AcDbLine
 10
1964.001917553099
 20
-275.9790079385239
 30
0.0
 11
1964.001917553099
 21
-291.9790079385239
 31
0.0
  0
LINE
  5
2F3
330
1F
100
AcDbEntity
  8
0
 62
     3
100
AcDbLine
 10
1714.001917553098
 20
-291.9790079385239
 30
0.0
 11
1714.001917553098
 21
-275.9790079385239
 31
0.0
  0
LINE
  5
2F4
330
1F
100
AcDbEntity
  8
0
 62
     3
100
AcDbLine
 10
1939.001917553099
 20
-386.9790079385363
 30
0.0
 11
1939.001917553099
 21
-781.979007938536
 31
0.0
  0
LINE
  5
2F5
330
1F
100
AcDbEntity
  8
0
 62
     3
100
AcDbLine
 10
1739.001917553098
 20
-386.9790079385363
 30
0.0
 11
1739.001917553098
 21
-781.979007938536
 31
0.0
  0
LINE
  5
2F6
330
1F
100
AcDbEntity
  8
0
 62
     3
100
AcDbLine
 10
1939.001917553099
 20
-781.979007938536
 30
0.0
 11
1739.001917553098
 21
-781.979007938536
 31
0.0
  0
LINE
  5
2F7
330
1F
100
AcDbEntity
  8
0
 62
     3
100
AcDbLine
 10
1879.001917553099
 20
-867.9790079385241
 30
0.0
 11
1879.001917553099
 21
-875.9790079385241
 31
0.0
  0
LINE
  5
2F8
330
1F
100
AcDbEntity
  8
0
 62
     3
100
AcDbLine
 10
1799.001917553098
 20
-875.9790079385241
 30
0.0
 11
1879.001917553099
 21
-875.9790079385241
 31
0.0
  0
LINE
  5
2F9
330
1F
100
AcDbEntity
  8
0
 62
     3
100
AcDbLine
 10
1879.001917553099
 20
-867.9790079385241
 30
0.0
 11
1799.001917553098
 21
-867.9790079385241
 31
0.0
  0
LINE
  5
2FA
330
1F
100
AcDbEntity
  8
0
 62
     3
100
AcDbLine
 10
1799.001917553098
 20
-867.9790079385241
 30
0.0
 11
1799.001917553098
 21
-875.9790079385241
 31
0.0
  0
LINE
  5
2FB
330
1F
100
AcDbEntity
  8
0
 62
     3
100
AcDbLine
 10
1879.001917553099
 20
-867.9790079385241
 30
0.0
 11
1861.501917553099
 21
-852.9790079385241
 31
0.0
  0
LINE
  5
2FC
330
1F
100
AcDbEntity
  8
0
 62
     3
100
AcDbLine
 10
1816.501917553098
 20
-852.9790079385241
 30
0.0
 11
1799.001917553098
 21
-867.9790079385241
 31
0.0
  0
LINE
  5
2FD
330
1F
100
AcDbEntity
  8
0
 62
     3
100
AcDbLine
 10
1861.501917553099
 20
-852.9790079385241
 30
0.0
 11
1816.501917553098
 21
-852.9790079385241
 31
0.0
  0
LINE
  5
2FE
330
1F
100
AcDbEntity
  8
0
 62
     3
100
AcDbLine
 10
1812.451917553097
 20
-832.9790079385241
 30
0.0
 11
1865.551917553098
 21
-832.9790079385241
 31
0.0
  0
LINE
  5
2FF
330
1F
100
AcDbEntity
  8
0
 62
     3
100
AcDbLine
 10
1819.091445648779
 20
-852.9790079385241
 30
0.0
 11
1858.912389457418
 21
-852.9790079385241
 31
0.0
  0
ARC
  5
300
330
1F
100
AcDbEntity
  8
0
 62
     3
100
AcDbCircle
 10
1819.091445648779
 20
-843.2749236475102
 30
0.0
 40
9.704084291014084
100
AcDbArc
 50
226.8273275017968
 51
313.1726724982032
  0
ARC
  5
301
330
1F
100
AcDbEntity
  8
0
 62
     3
100
AcDbCircle
 10
1858.912389457418
 20
-843.2749236475102
 30
0.0
 40
9.704084291014084
100
AcDbArc
 50
226.8273275017968
 51
313.1726724982032
  0
ARC
  5
302
330
1F
100
AcDbEntity
  8
0
 62
     3
100
AcDbCircle
 10
1839.001917553098
 20
-818.1440814845098
 30
0.0
 40
34.83492645401438
100
AcDbArc
 50
247.6064304957075
 51
292.3935695042925
  0
LINE
  5
303
330
1F
100
AcDbEntity
  8
0
 62
     3
100
AcDbLine
 10
1865.551917553098
 20
-832.9790079385241
 30
0.0
 11
1865.551917553098
 21
-850.3520642137114
 31
0.0
  0
LINE
  5
304
330
1F
100
AcDbEntity
  8
0
 62
     3
100
AcDbLine
 10
1852.272861361737
 20
-832.9790079385241
 30
0.0
 11
1852.272861361737
 21
-850.3520642137114
 31
0.0
  0
LINE
  5
305
330
1F
100
AcDbEntity
  8
0
 62
     3
100
AcDbLine
 10
1825.73097374446
 20
-850.3520642137114
 30
0.0
 11
1825.73097374446
 21
-832.9790079385241
 31
0.0
  0
LINE
  5
306
330
1F
100
AcDbEntity
  8
0
 62
     3
100
AcDbLine
 10
1812.451917553097
 20
-832.9790079385241
 30
0.0
 11
1812.451917553097
 21
-850.3520642137114
 31
0.0
  0
LINE
  5
307
330
1F
100
AcDbEntity
  8
0
 62
     3
100
AcDbLine
 10
1812.451917553097
 20
-781.979007938536
 30
0.0
 11
1812.451917553097
 21
-798.3520642137228
 31
0.0
  0
LINE
  5
308
330
1F
100
AcDbEntity
  8
0
 62
     3
100
AcDbLine
 10
1825.73097374446
 20
-798.3520642137228
 30
0.0
 11
1825.73097374446
 21
-781.979007938536
 31
0.0
  0
LINE
  5
309
330
1F
100
AcDbEntity
  8
0
 62
     3
100
AcDbLine
 10
1819.091445648779
 20
-800.9790079385355
 30
0.0
 11
1858.912389457418
 21
-800.9790079385355
 31
0.0
  0
LINE
  5
30A
330
1F
100
AcDbEntity
  8
0
 62
     3
100
AcDbLine
 10
1865.551917553098
 20
-781.9790079385361
 30
0.0
 11
1865.551917553098
 21
-798.3520642137228
 31
0.0
  0
LINE
  5
30B
330
1F
100
AcDbEntity
  8
0
 62
     3
100
AcDbLine
 10
1852.272861361737
 20
-781.979007938536
 30
0.0
 11
1852.272861361737
 21
-798.3520642137228
 31
0.0
  0
ARC
  5
30C
330
1F
100
AcDbEntity
  8
0
 62
     3
100
AcDbCircle
 10
1819.091445648779
 20
-791.2749236475215
 30
0.0
 40
9.704084291014084
100
AcDbArc
 50
226.8273275017968
 51
313.1726724982032
  0
ARC
  5
30D
330
1F
100
AcDbEntity
  8
0
 62
     3
100
AcDbCircle
 10
1858.912389457418
 20
-791.2749236475215
 30
0.0
 40
9.704084291014084
100
AcDbArc
 50
226.8273275017968
 51
313.1726724982032
  0
ARC
  5
30E
330
1F
100
AcDbEntity
  8
0
 62
     3
100
AcDbCircle
 10
1839.001917553098
 20
-766.1440814845212
 30
0.0
 40
34.83492645401438
100
AcDbArc
 50
247.6064304957075
 51
292.3935695042925
  0
LINE
  5
30F
330
1F
100
AcDbEntity
  8
0
 62
     3
100
AcDbLine
 10
1816.501917553098
 20
-852.9790079385242
 30
0.0
 11
1858.912389457418
 21
-852.9790079385242
 31
0.0
  0
LINE
  5
310
330
1F
100
AcDbEntity
  8
0
 62
     3
100
AcDbLine
 10
1289.001917553098
 20
-717.9790079385239
 30
0.0
 11
1289.001917553098
 21
-726.9790079385239
 31
0.0
  0
LINE
  5
311
330
1F
100
AcDbEntity
  8
0
 62
     3
100
AcDbLine
 10
1399.001917553098
 20
-726.9790079385239
 30
0.0
 11
1289.001917553098
 21
-726.9790079385239
 31
0.0
  0
LINE
  5
312
330
1F
100
AcDbEntity
  8
0
 62
     3
100
AcDbLine
 10
1399.001917553098
 20
-717.9790079385239
 30
0.0
 11
1399.001917553098
 21
-726.9790079385239
 31
0.0
  0
LINE
  5
313
330
1F
100
AcDbEntity
  8
0
  6
CENTER
 62
     4
100
AcDbLine
 10
-1001.508918360215
 20
-46.28193278338891
 30
0.0
 11
-1001.508918360215
 21
-806.1003009027082
 31
0.0
  0
LINE
  5
314
330
1F
100
AcDbEntity
  8
0
  6
CENTER
 62
     4
100
AcDbLine
 10
-1501.508918360215
 20
-875.9790079385241
 30
0.0
 11
-1501.508918360215
 21
-223.1935729108635
 31
0.0
  0
LINE
  5
315
330
1F
100
AcDbEntity
  8
0
  6
CENTER
 62
     4
100
AcDbLine
 10
-1001.508918360215
 20
1299.41223671013
 30
0.0
 11
-1001.508918360215
 21
220.2026165053156
 31
0.0
  0
LINE
  5
316
330
1F
100
AcDbEntity
  8
0
  6
CENTER
 62
     4
100
AcDbLine
 10
-201.7230709146357
 20
749.0209920614761
 30
0.0
 11
-1805.535312688191
 21
749.0209920614764
 31
0.0
  0
LINE
  5
317
330
1F
100
AcDbEntity
  8
0
  6
CENTER
 62
     4
100
AcDbLine
 10
-979.5089183602117
 20
-318.9790079385238
 30
0.0
 11
-973.2571319142339
 21
-318.9790079385238
 31
0.0
  0
LINE
  5
318
330
1F
100
AcDbEntity
  8
0
  6
CENTER
 62
     4
100
AcDbLine
 10
-965.6563876721771
 20
-329.4790079385238
 30
0.0
 11
-958.6084248295424
 21
-329.4790079385238
 31
0.0
  0
LINE
  5
319
330
1F
100
AcDbEntity
  8
0
  6
CENTER
 62
     4
100
AcDbLine
 10
-961.0089183602117
 20
-316.2310081448877
 30
0.0
 11
-961.0089183602117
 21
-319.6409606466036
 31
0.0
  0
LINE
  5
31A
330
1F
100
AcDbEntity
  8
0
  6
CENTER
 62
     4
100
AcDbLine
 10
-962.5842073333311
 20
-317.9790079385238
 30
0.0
 11
-959.4498095317672
 21
-317.9790079385238
 31
0.0
  0
LINE
  5
31B
330
1F
100
AcDbEntity
  8
0
  6
CENTER
 62
     4
100
AcDbLine
 10
-976.5089183602117
 20
-315.5567689908298
 30
0.0
 11
-976.5089183602117
 21
-322.637977555762
 31
0.0
  0
LINE
  5
31C
330
1F
100
AcDbEntity
  8
0
  6
CENTER
 62
     4
100
AcDbLine
 10
-962.0089183602117
 20
-325.933310095088
 30
0.0
 11
-962.0089183602117
 21
-332.9766401469573
 31
0.0
  0
LINE
  5
31D
330
1F
100
AcDbEntity
  8
0
  6
CENTER
 62
     4
100
AcDbLine
 10
-501.5089183602145
 20
-875.9790079385241
 30
0.0
 11
-501.5089183602145
 21
-223.1935729108635
 31
0.0
  0
LINE
  5
31E
330
1F
100
AcDbEntity
  8
0
  6
CENTER
 62
     4
100
AcDbLine
 10
-1296.508918360215
 20
-709.1288804685668
 30
0.0
 11
-1296.508918360215
 21
-756.5484443239125
 31
0.0
  0
LINE
  5
31F
330
1F
100
AcDbEntity
  8
0
  6
CENTER
 62
     4
100
AcDbLine
 10
-706.5089183602145
 20
-709.1288804685668
 30
0.0
 11
-706.5089183602145
 21
-756.5484443239125
 31
0.0
  0
LINE
  5
320
330
1F
100
AcDbEntity
  8
0
  6
CENTER
 62
     4
100
AcDbLine
 10
1489.001917553098
 20
-46.2819327833888
 30
0.0
 11
1489.001917553098
 21
-795.3761283851557
 31
0.0
  0
LINE
  5
321
330
1F
100
AcDbEntity
  8
0
  6
CENTER
 62
     4
100
AcDbLine
 10
1139.001917553098
 20
-875.9790079385241
 30
0.0
 11
1139.001917553098
 21
-223.1935729108635
 31
0.0
  0
LINE
  5
322
330
1F
100
AcDbEntity
  8
0
  6
CENTER
 62
     4
100
AcDbLine
 10
1839.001917553098
 20
-875.9790079385241
 30
0.0
 11
1839.001917553098
 21
-223.1935729108635
 31
0.0
  0
LINE
  5
323
330
1F
100
AcDbEntity
  8
0
  6
CENTER
 62
     4
100
AcDbLine
 10
1344.001917553098
 20
-709.1288804685668
 30
0.0
 11
1344.001917553098
 21
-756.5484443239125
 31
0.0
  0
LINE
  5
324
330
1F
100
AcDbEntity
  8
0
  6
DASHED2
 62
     4
100
AcDbLine
 10
-1439.008918360215
 20
-406.9790079385238
 30
0.0
 11
-1564.008918360215
 21
-406.9790079385238
 31
0.0
  0
LINE
  5
325
330
1F
100
AcDbEntity
  8
0
  6
DASHED2
 62
     4
100
AcDbLine
 10
-1439.008918360215
 20
-531.9790079385239
 30
0.0
 11
-1564.008918360215
 21
-531.9790079385239
 31
0.0
  0
LINE
  5
326
330
1F
100
AcDbEntity
  8
0
  6
DASHED2
 62
     4
100
AcDbLine
 10
-1564.008918360215
 20
-531.9790079385239
 30
0.0
 11
-1564.008918360215
 21
-406.9790079385238
 31
0.0
  0
LINE
  5
327
330
1F
100
AcDbEntity
  8
0
  6
DASHED2
 62
     4
100
AcDbLine
 10
-1439.008918360215
 20
-531.9790079385239
 30
0.0
 11
-1439.008918360215
 21
-406.9790079385238
 31
0.0
  0
LINE
  5
328
330
1F
100
AcDbEntity
  8
0
  6
DASHED2
 62
     4
100
AcDbLine
 10
-1439.008918360215
 20
-592.9790079385239
 30
0.0
 11
-1564.008918360215
 21
-592.9790079385239
 31
0.0
  0
LINE
  5
329
330
1F
100
AcDbEntity
  8
0
  6
DASHED2
 62
     4
100
AcDbLine
 10
-1439.008918360215
 20
-717.9790079385239
 30
0.0
 11
-1564.008918360215
 21
-717.9790079385239
 31
0.0
  0
LINE
  5
32A
330
1F
100
AcDbEntity
  8
0
  6
DASHED2
 62
     4
100
AcDbLine
 10
-1564.008918360215
 20
-717.9790079385239
 30
0.0
 11
-1564.008918360215
 21
-592.9790079385239
 31
0.0
  0
LINE
  5
32B
330
1F
100
AcDbEntity
  8
0
  6
DASHED2
 62
     4
100
AcDbLine
 10
-1439.008918360215
 20
-717.9790079385239
 30
0.0
 11
-1439.008918360215
 21
-592.9790079385239
 31
0.0
  0
LINE
  5
32C
330
1F
100
AcDbEntity
  8
0
  6
DASHED2
 62
     4
100
AcDbLine
 10
-564.0089183602145
 20
-406.9790079385238
 30
0.0
 11
-439.0089183602142
 21
-406.9790079385238
 31
0.0
  0
LINE
  5
32D
330
1F
100
AcDbEntity
  8
0
  6
DASHED2
 62
     4
100
AcDbLine
 10
-564.0089183602145
 20
-531.9790079385239
 30
0.0
 11
-439.0089183602142
 21
-531.9790079385239
 31
0.0
  0
LINE
  5
32E
330
1F
100
AcDbEntity
  8
0
  6
DASHED2
 62
     4
100
AcDbLine
 10
-439.0089183602142
 20
-531.9790079385239
 30
0.0
 11
-439.0089183602142
 21
-406.9790079385238
 31
0.0
  0
LINE
  5
32F
330
1F
100
AcDbEntity
  8
0
  6
DASHED2
 62
     4
100
AcDbLine
 10
-564.0089183602145
 20
-531.9790079385239
 30
0.0
 11
-564.0089183602145
 21
-406.9790079385238
 31
0.0
  0
LINE
  5
330
330
1F
100
AcDbEntity
  8
0
  6
DASHED2
 62
     4
100
AcDbLine
 10
-564.0089183602145
 20
-592.9790079385239
 30
0.0
 11
-439.0089183602142
 21
-592.9790079385239
 31
0.0
  0
LINE
  5
331
330
1F
100
AcDbEntity
  8
0
  6
DASHED2
 62
     4
100
AcDbLine
 10
-564.0089183602145
 20
-717.9790079385239
 30
0.0
 11
-439.0089183602142
 21
-717.9790079385239
 31
0.0
  0
LINE
  5
332
330
1F
100
AcDbEntity
  8
0
  6
DASHED2
 62
     4
100
AcDbLine
 10
-439.0089183602142
 20
-717.9790079385239
 30
0.0
 11
-439.0089183602142
 21
-592.9790079385239
 31
0.0
  0
LINE
  5
333
330
1F
100
AcDbEntity
  8
0
  6
DASHED2
 62
     4
100
AcDbLine
 10
-564.0089183602145
 20
-717.9790079385239
 30
0.0
 11
-564.0089183602145
 21
-592.9790079385239
 31
0.0
  0
LINE
  5
334
330
1F
100
AcDbEntity
  8
0
  6
DASHED2
 62
     4
100
AcDbLine
 10
1426.501917553098
 20
-717.9790079385239
 30
0.0
 11
1426.501917553098
 21
-592.9790079385239
 31
0.0
  0
LINE
  5
335
330
1F
100
AcDbEntity
  8
0
  6
DASHED2
 62
     4
100
AcDbLine
 10
1551.501917553098
 20
-717.9790079385239
 30
0.0
 11
1551.501917553098
 21
-592.9790079385239
 31
0.0
  0
LINE
  5
336
330
1F
100
AcDbEntity
  8
0
  6
DASHED2
 62
     4
100
AcDbLine
 10
1426.501917553098
 20
-531.9790079385239
 30
0.0
 11
1426.501917553098
 21
-406.9790079385238
 31
0.0
  0
LINE
  5
337
330
1F
100
AcDbEntity
  8
0
  6
DASHED2
 62
     4
100
AcDbLine
 10
1551.501917553098
 20
-531.9790079385239
 30
0.0
 11
1551.501917553098
 21
-406.9790079385238
 31
0.0
  0
LINE
  5
338
330
1F
100
AcDbEntity
  8
0
  6
DASHED2
 62
     4
100
AcDbLine
 10
1776.501917553098
 20
-406.9790079385238
 30
0.0
 11
1901.501917553099
 21
-406.9790079385238
 31
0.0
  0
LINE
  5
339
330
1F
100
AcDbEntity
  8
0
  6
DASHED2
 62
     4
100
AcDbLine
 10
1776.501917553098
 20
-531.9790079385239
 30
0.0
 11
1901.501917553099
 21
-531.9790079385239
 31
0.0
  0
LINE
  5
33A
330
1F
100
AcDbEntity
  8
0
  6
DASHED2
 62
     4
100
AcDbLine
 10
1901.501917553099
 20
-531.9790079385239
 30
0.0
 11
1901.501917553099
 21
-406.9790079385238
 31
0.0
  0
LINE
  5
33B
330
1F
100
AcDbEntity
  8
0
  6
DASHED2
 62
     4
100
AcDbLine
 10
1776.501917553098
 20
-531.9790079385239
 30
0.0
 11
1776.501917553098
 21
-406.9790079385238
 31
0.0
  0
LINE
  5
33C
330
1F
100
AcDbEntity
  8
0
  6
DASHED2
 62
     4
100
AcDbLine
 10
1776.501917553098
 20
-592.9790079385239
 30
0.0
 11
1901.501917553099
 21
-592.9790079385239
 31
0.0
  0
LINE
  5
33D
330
1F
100
AcDbEntity
  8
0
  6
DASHED2
 62
     4
100
AcDbLine
 10
1776.501917553098
 20
-717.9790079385239
 30
0.0
 11
1901.501917553099
 21
-717.9790079385239
 31
0.0
  0
LINE
  5
33E
330
1F
100
AcDbEntity
  8
0
  6
DASHED2
 62
     4
100
AcDbLine
 10
1901.501917553099
 20
-717.9790079385239
 30
0.0
 11
1901.501917553099
 21
-592.9790079385239
 31
0.0
  0
LINE
  5
33F
330
1F
100
AcDbEntity
  8
0
  6
DASHED2
 62
     4
100
AcDbLine
 10
1776.501917553098
 20
-717.9790079385239
 30
0.0
 11
1776.501917553098
 21
-592.9790079385239
 31
0.0
  0
LINE
  5
340
330
1F
100
AcDbEntity
  8
0
  6
DIVIDE
 62
     5
100
AcDbLine
 10
-1541.508918360215
 20
-875.9790079385241
 30
0.0
 11
-461.5089183602146
 21
-875.9790079385241
 31
0.0
  0
LINE
  5
341
330
1F
100
AcDbEntity
  8
0
  6
DIVIDE
 62
     5
100
AcDbLine
 10
1179.001917553098
 20
-875.9790079385241
 30
0.0
 11
1799.001917553098
 21
-875.9790079385241
 31
0.0
  0
LINE
  5
342
330
1F
100
AcDbEntity
  8
LAYER0032
 62
     3
100
AcDbLine
 10
-991.5089183602117
 20
-285.9790079385243
 30
0.0
 11
-1006.508918360212
 21
-285.979007938524
 31
0.0
  0
LINE
  5
343
330
1F
100
AcDbEntity
  8
LAYER0032
 62
     3
100
AcDbLine
 10
-1006.508918360212
 20
-283.979007938524
 30
0.0
 11
-1006.508918360212
 21
-285.979007938524
 31
0.0
  0
LINE
  5
344
330
1F
100
AcDbEntity
  8
LAYER0032
 62
     3
100
AcDbLine
 10
-991.5089183602117
 20
-283.9790079385243
 30
0.0
 11
-1006.508918360212
 21
-283.979007938524
 31
0.0
  0
LINE
  5
345
330
1F
100
AcDbEntity
  8
LAYER0032
 62
     3
100
AcDbLine
 10
-991.5089183602117
 20
-283.9790079385243
 30
0.0
 11
-991.5089183602117
 21
-285.9790079385243
 31
0.0
  0
LINE
  5
346
330
1F
100
AcDbEntity
  8
LAYER0032
 62
     3
100
AcDbLine
 10
-1006.508918360212
 20
-275.9790079385238
 30
0.0
 11
-1006.508918360212
 21
-276.9790079385238
 31
0.0
  0
LINE
  5
347
330
1F
100
AcDbEntity
  8
LAYER0032
 62
     3
100
AcDbLine
 10
-991.5089183602117
 20
-276.979007938524
 30
0.0
 11
-1006.508918360212
 21
-276.9790079385238
 31
0.0
  0
LINE
  5
348
330
1F
100
AcDbEntity
  8
LAYER0032
 62
     3
100
AcDbLine
 10
-991.5089183602117
 20
-275.979007938524
 30
0.0
 11
-1006.508918360212
 21
-275.9790079385238
 31
0.0
  0
LINE
  5
349
330
1F
100
AcDbEntity
  8
LAYER0032
 62
     3
100
AcDbLine
 10
-991.5089183602117
 20
-275.979007938524
 30
0.0
 11
-991.5089183602117
 21
-276.979007938524
 31
0.0
  0
LINE
  5
34A
330
1F
100
AcDbEntity
  8
LAYER0032
 62
     3
100
AcDbLine
 10
-992.5089183602117
 20
-276.979007938524
 30
0.0
 11
-992.5089183602117
 21
-283.9790079385243
 31
0.0
  0
LINE
  5
34B
330
1F
100
AcDbEntity
  8
LAYER0032
 62
     3
100
AcDbLine
 10
-1005.508918360212
 20
-283.979007938524
 30
0.0
 11
-1005.508918360212
 21
-276.9790079385238
 31
0.0
  0
LINE
  5
34C
330
1F
100
AcDbEntity
  8
LAYER0032
  6
CENTER
 62
     4
100
AcDbLine
 10
-999.0089183602117
 20
-273.3535603434553
 30
0.0
 11
-999.0089183602127
 21
-339.0096395392663
 31
0.0
  0
LINE
  5
34D
330
1F
100
AcDbEntity
  8
LAYER0032
  6
CENTER
 62
     4
100
AcDbLine
 10
1452.237538013221
 20
-465.9790079385237
 30
0.0
 11
1572.149583230515
 21
-465.9790079385237
 31
0.0
  0
LINE
  5
34E
330
1F
100
AcDbEntity
  8
0
 62
     3
100
AcDbLine
 10
-976.5089183602117
 20
-315.9790079385238
 30
0.0
 11
-969.5089183602117
 21
-315.9790079385238
 31
0.0
  0
ARC
  5
34F
330
1F
100
AcDbEntity
  8
0
 62
     3
100
AcDbCircle
 10
-976.5089183602117
 20
-318.9790079385238
 30
0.0
 40
3.0
100
AcDbArc
 50
90.0
 51
180.0
  0
CIRCLE
  5
350
330
1F
100
AcDbEntity
  8
0
 62
     3
100
AcDbCircle
 10
-976.5089183602117
 20
-318.9790079385238
 30
0.0
 40
1.23
  0
CIRCLE
  5
351
330
1F
100
AcDbEntity
  8
0
 62
     3
100
AcDbCircle
 10
-976.5089183602117
 20
-318.9790079385238
 30
0.0
 40
1.5
  0
CIRCLE
  5
352
330
1F
100
AcDbEntity
  8
0
 62
     3
100
AcDbCircle
 10
-962.0089183602117
 20
-329.4790079385238
 30
0.0
 40
1.23
  0
CIRCLE
  5
353
330
1F
100
AcDbEntity
  8
0
 62
     3
100
AcDbCircle
 10
-962.0089183602117
 20
-329.4790079385238
 30
0.0
 40
1.5
  0
LINE
  5
354
330
1F
100
AcDbEntity
  8
0
 62
     3
100
AcDbLine
 10
-959.0089183602117
 20
-309.4790079385238
 30
0.0
 11
-959.0089183602117
 21
-312.4790079385238
 31
0.0
  0
CIRCLE
  5
355
330
1F
100
AcDbEntity
  8
0
 62
     3
100
AcDbCircle
 10
-961.0089183602117
 20
-317.9790079385238
 30
0.0
 40
1.0
  0
LINE
  5
356
330
1F
100
AcDbEntity
  8
0
 62
     3
100
AcDbLine
 10
-963.0089183602117
 20
-312.4790079385238
 30
0.0
 11
-963.0089183602117
 21
-317.9790079385238
 31
0.0
  0
ARC
  5
357
330
1F
100
AcDbEntity
  8
0
 62
     3
100
AcDbCircle
 10
-961.0089183602117
 20
-317.9790079385238
 30
0.0
 40
2.00000000000002
100
AcDbArc
 50
180.0
 51
360.0
  0
LINE
  5
358
330
1F
100
AcDbEntity
  8
0
 62
     3
100
AcDbLine
 10
-959.0089183602117
 20
-312.4790079385238
 30
0.0
 11
-959.0089183602117
 21
-317.9790079385238
 31
0.0
  0
LINE
  5
359
330
1F
100
AcDbEntity
  8
0
 62
     3
100
AcDbLine
 10
-963.0089183602117
 20
-317.1790079385241
 30
0.0
 11
-968.3089183602119
 21
-317.1790079385241
 31
0.0
  0
ARC
  5
35A
330
1F
100
AcDbEntity
  8
0
 62
     3
100
AcDbCircle
 10
-976.5089183602117
 20
-318.9790079385238
 30
0.0
 40
3.0
100
AcDbArc
 50
90.0
 51
180.0
  0
LINE
  5
35B
330
1F
100
AcDbEntity
  8
0
 62
     3
100
AcDbLine
 10
-963.0089183602117
 20
-315.9790079385238
 30
0.0
 11
-976.5089183602117
 21
-315.9790079385238
 31
0.0
  0
LINE
  5
35C
330
1F
100
AcDbEntity
  8
0
 62
     3
100
AcDbLine
 10
-959.0089183602117
 20
-317.9790079385238
 30
0.0
 11
-959.0089183602117
 21
-326.4790079385239
 31
0.0
  0
LINE
  5
35D
330
1F
100
AcDbEntity
  8
0
 62
     3
100
AcDbLine
 10
-947.7089183602116
 20
-317.2290079385238
 30
0.0
 11
-946.5089183602117
 21
-317.2290079385238
 31
0.0
  0
LINE
  5
35E
330
1F
100
AcDbEntity
  8
0
 62
     3
100
AcDbLine
 10
-946.5089183602117
 20
-317.2290079385238
 30
0.0
 11
-946.5089183602117
 21
-324.7290079385238
 31
0.0
  0
LINE
  5
35F
330
1F
100
AcDbEntity
  8
0
 62
     3
100
AcDbLine
 10
-947.7089183602116
 20
-317.2290079385238
 30
0.0
 11
-947.7089183602116
 21
-324.7290079385238
 31
0.0
  0
LINE
  5
360
330
1F
100
AcDbEntity
  8
0
 62
     3
100
AcDbLine
 10
-946.5089183602117
 20
-324.7290079385238
 30
0.0
 11
-947.7089183602116
 21
-324.7290079385238
 31
0.0
  0
LINE
  5
361
330
1F
100
AcDbEntity
  8
0
 62
     3
100
AcDbLine
 10
-947.7089183602116
 20
-318.2290079385238
 30
0.0
 11
-948.7089183602116
 21
-318.2290079385238
 31
0.0
  0
LINE
  5
362
330
1F
100
AcDbEntity
  8
0
 62
     3
100
AcDbLine
 10
-948.7089183602116
 20
-323.7290079385238
 30
0.0
 11
-947.7089183602116
 21
-323.7290079385238
 31
0.0
  0
LINE
  5
363
330
1F
100
AcDbEntity
  8
0
 62
     3
100
AcDbLine
 10
-949.7089183602116
 20
-316.9790079385238
 30
0.0
 11
-948.7089183602116
 21
-316.9790079385238
 31
0.0
  0
LINE
  5
364
330
1F
100
AcDbEntity
  8
0
 62
     3
100
AcDbLine
 10
-949.7089183602116
 20
-324.9790079385238
 30
0.0
 11
-948.7089183602116
 21
-324.9790079385238
 31
0.0
  0
LINE
  5
365
330
1F
100
AcDbEntity
  8
0
 62
     3
100
AcDbLine
 10
-948.7089183602116
 20
-316.9790079385238
 30
0.0
 11
-948.7089183602116
 21
-324.9790079385238
 31
0.0
  0
LINE
  5
366
330
1F
100
AcDbEntity
  8
0
 62
     3
100
AcDbLine
 10
-949.7089183602116
 20
-316.9790079385238
 30
0.0
 11
-949.7089183602116
 21
-324.9790079385238
 31
0.0
  0
LINE
  5
367
330
1F
100
AcDbEntity
  8
0
 62
     3
100
AcDbLine
 10
-952.2089183602116
 20
-316.8790079385239
 30
0.0
 11
-952.2089183602116
 21
-325.0790079385242
 31
0.0
  0
LINE
  5
368
330
1F
100
AcDbEntity
  8
0
 62
     3
100
AcDbLine
 10
-952.2089183602116
 20
-316.8790079385239
 30
0.0
 11
-949.7089183602116
 21
-316.9790079385238
 31
0.0
  0
LINE
  5
369
330
1F
100
AcDbEntity
  8
0
 62
     3
100
AcDbLine
 10
-952.2089183602116
 20
-325.0790079385242
 30
0.0
 11
-949.7089183602116
 21
-324.9790079385238
 31
0.0
  0
LINE
  5
36A
330
1F
100
AcDbEntity
  8
0
 62
     3
100
AcDbLine
 10
-947.7089183602116
 20
-325.2290079385238
 30
0.0
 11
-946.5089183602117
 21
-325.2290079385238
 31
0.0
  0
LINE
  5
36B
330
1F
100
AcDbEntity
  8
0
 62
     3
100
AcDbLine
 10
-946.5089183602117
 20
-325.2290079385238
 30
0.0
 11
-946.5089183602117
 21
-332.7290079385238
 31
0.0
  0
LINE
  5
36C
330
1F
100
AcDbEntity
  8
0
 62
     3
100
AcDbLine
 10
-947.7089183602116
 20
-325.2290079385238
 30
0.0
 11
-947.7089183602116
 21
-332.7290079385238
 31
0.0
  0
LINE
  5
36D
330
1F
100
AcDbEntity
  8
0
 62
     3
100
AcDbLine
 10
-946.5089183602117
 20
-332.7290079385238
 30
0.0
 11
-947.7089183602116
 21
-332.7290079385238
 31
0.0
  0
LINE
  5
36E
330
1F
100
AcDbEntity
  8
0
 62
     3
100
AcDbLine
 10
-947.7089183602116
 20
-326.2290079385238
 30
0.0
 11
-948.7089183602116
 21
-326.2290079385238
 31
0.0
  0
LINE
  5
36F
330
1F
100
AcDbEntity
  8
0
 62
     3
100
AcDbLine
 10
-948.7089183602116
 20
-331.7290079385238
 30
0.0
 11
-947.7089183602116
 21
-331.7290079385238
 31
0.0
  0
LINE
  5
370
330
1F
100
AcDbEntity
  8
0
 62
     3
100
AcDbLine
 10
-949.7089183602116
 20
-332.9790079385238
 30
0.0
 11
-948.7089183602116
 21
-332.9790079385238
 31
0.0
  0
LINE
  5
371
330
1F
100
AcDbEntity
  8
0
 62
     3
100
AcDbLine
 10
-948.7089183602116
 20
-324.9790079385238
 30
0.0
 11
-948.7089183602116
 21
-332.9790079385238
 31
0.0
  0
LINE
  5
372
330
1F
100
AcDbEntity
  8
0
 62
     3
100
AcDbLine
 10
-949.7089183602116
 20
-324.9790079385238
 30
0.0
 11
-949.7089183602116
 21
-332.9790079385238
 31
0.0
  0
LINE
  5
373
330
1F
100
AcDbEntity
  8
0
 62
     3
100
AcDbLine
 10
-952.2089183602116
 20
-324.8790079385239
 30
0.0
 11
-952.2089183602116
 21
-333.0790079385242
 31
0.0
  0
LINE
  5
374
330
1F
100
AcDbEntity
  8
0
 62
     3
100
AcDbLine
 10
-952.2089183602116
 20
-324.8790079385239
 30
0.0
 11
-949.7089183602116
 21
-324.9790079385238
 31
0.0
  0
LINE
  5
375
330
1F
100
AcDbEntity
  8
0
 62
     3
100
AcDbLine
 10
-952.2089183602116
 20
-333.0790079385242
 30
0.0
 11
-949.7089183602116
 21
-332.9790079385238
 31
0.0
  0
LINE
  5
376
330
1F
100
AcDbEntity
  8
0
 62
     3
100
AcDbLine
 10
-959.0089183602117
 20
-316.9790079385243
 30
0.0
 11
-955.5089183602117
 21
-316.9790079385243
 31
0.0
  0
LINE
  5
377
330
1F
100
AcDbEntity
  8
0
 62
     3
100
AcDbLine
 10
-959.0089183602117
 20
-315.9790079385243
 30
0.0
 11
-955.5089183602117
 21
-315.9790079385243
 31
0.0
  0
LINE
  5
378
330
1F
100
AcDbEntity
  8
0
 62
     3
100
AcDbLine
 10
-955.5089183602117
 20
-315.9790079385243
 30
0.0
 11
-955.5089183602117
 21
-316.9790079385243
 31
0.0
  0
LINE
  5
379
330
1F
100
AcDbEntity
  8
0
 62
     3
100
AcDbLine
 10
-952.2089183602116
 20
-316.8790079385239
 30
0.0
 11
-955.5089183602117
 21
-316.9790079385243
 31
0.0
  0
LINE
  5
37A
330
1F
100
AcDbEntity
  8
0
 62
     3
100
AcDbLine
 10
-973.5089183602117
 20
-314.4790079385238
 30
0.0
 11
-973.5089183602117
 21
-315.9790079385238
 31
0.0
  0
LINE
  5
37B
330
1F
100
AcDbEntity
  8
0
 62
     3
100
AcDbLine
 10
-973.5089183602117
 20
-314.4790079385238
 30
0.0
 11
-965.5089183602117
 21
-314.4790079385238
 31
0.0
  0
LINE
  5
37C
330
1F
100
AcDbEntity
  8
0
 62
     3
100
AcDbLine
 10
-965.5089183602117
 20
-314.4790079385238
 30
0.0
 11
-965.5089183602117
 21
-315.9790079385238
 31
0.0
  0
LINE
  5
37D
330
1F
100
AcDbEntity
  8
0
 62
     3
100
AcDbLine
 10
-968.1089183602121
 20
-314.4790079385238
 30
0.0
 11
-968.1089183602121
 21
-312.4790079385238
 31
0.0
  0
LINE
  5
37E
330
1F
100
AcDbEntity
  8
0
 62
     3
100
AcDbLine
 10
-970.9089183602123
 20
-314.4790079385238
 30
0.0
 11
-970.9089183602123
 21
-312.4790079385238
 31
0.0
  0
LINE
  5
37F
330
1F
100
AcDbEntity
  8
0
 62
     3
100
AcDbLine
 10
-964.8775118958715
 20
-320.6104144028646
 30
0.0
 11
-964.8775118958715
 21
-317.1790079385241
 31
0.0
  0
LINE
  5
380
330
1F
100
AcDbEntity
  8
0
 62
     3
100
AcDbLine
 10
-960.0089183602117
 20
-319.7110587460929
 30
0.0
 11
-960.0089183602117
 21
-325.4790079385239
 31
0.0
  0
LINE
  5
381
330
1F
100
AcDbEntity
  8
0
 62
     3
100
AcDbLine
 10
-964.0089183602117
 20
-315.9790079385238
 30
0.0
 11
-964.0089183602117
 21
-317.1790079385241
 31
0.0
  0
LINE
  5
382
330
1F
100
AcDbEntity
  8
0
 62
     3
100
AcDbLine
 10
-979.5089183602117
 20
-406.9790079385238
 30
0.0
 11
-979.5089183602117
 21
-318.9790079385238
 31
0.0
  0
LINE
  5
383
330
1F
100
AcDbEntity
  8
0
 62
     3
100
AcDbLine
 10
-947.5089183602117
 20
-406.9790079385238
 30
0.0
 11
-947.5089183602117
 21
-337.9790079385238
 31
0.0
  0
LINE
  5
384
330
1F
100
AcDbEntity
  8
0
 62
     3
100
AcDbLine
 10
-1009.008918360212
 20
-309.4790079385238
 30
0.0
 11
-1009.008918360212
 21
-312.4790079385238
 31
0.0
  0
LINE
  5
385
330
1F
100
AcDbEntity
  8
0
 62
     3
100
AcDbLine
 10
-959.0089183602117
 20
-309.4790079385238
 30
0.0
 11
-1009.008918360212
 21
-309.4790079385238
 31
0.0
  0
LINE
  5
386
330
1F
100
AcDbEntity
  8
0
 62
     3
100
AcDbLine
 10
-1009.008918360212
 20
-312.4790079385238
 30
0.0
 11
-959.0089183602117
 21
-312.4790079385238
 31
0.0
  0
LINE
  5
387
330
1F
100
AcDbEntity
  8
0
  6
CENTER
 62
     4
100
AcDbLine
 10
-953.9526013040663
 20
-328.9790079385238
 30
0.0
 11
-944.8141755890024
 21
-328.9790079385238
 31
0.0
  0
LINE
  5
388
330
1F
100
AcDbEntity
  8
0
  6
CENTER
 62
     4
100
AcDbLine
 10
-953.8159462350864
 20
-320.9790079385238
 30
0.0
 11
-944.6696617620623
 21
-320.9790079385238
 31
0.0
  0
LINE
  5
389
330
1F
100
AcDbEntity
  8
LAYER0240
  6
CENTER
 62
     4
100
AcDbLine
 10
-1611.508918360217
 20
-303.7292085581121
 30
0.0
 11
-1611.508918360217
 21
-289.3802147182289
 31
0.0
  0
LINE
  5
38A
330
1F
100
AcDbEntity
  8
LAYER0240
  6
CENTER
 62
     4
100
AcDbLine
 10
-1391.508918360212
 20
-303.7292085581121
 30
0.0
 11
-1391.508918360212
 21
-289.3802147182289
 31
0.0
  0
LINE
  5
38B
330
1F
100
AcDbEntity
  8
LAYER0240
  6
CENTER
 62
     4
100
AcDbLine
 10
-391.5089183602115
 20
-303.7292085581121
 30
0.0
 11
-391.5089183602115
 21
-289.3802147182289
 31
0.0
  0
LINE
  5
38C
330
1F
100
AcDbEntity
  8
LAYER0240
  6
CENTER
 62
     4
100
AcDbLine
 10
-611.5089183602174
 20
-303.7292085581121
 30
0.0
 11
-611.5089183602174
 21
-289.3802147182289
 31
0.0
  0
LINE
  5
38D
330
1F
100
AcDbEntity
  8
LAYER0240
  6
CENTER
 62
     4
100
AcDbLine
 10
1029.001917553095
 20
-303.7292085581121
 30
0.0
 11
1029.001917553095
 21
-289.3802147182289
 31
0.0
  0
LINE
  5
38E
330
1F
100
AcDbEntity
  8
LAYER0240
  6
CENTER
 62
     4
100
AcDbLine
 10
1249.001917553101
 20
-303.7292085581121
 30
0.0
 11
1249.001917553101
 21
-289.3802147182289
 31
0.0
  0
LINE
  5
38F
330
1F
100
AcDbEntity
  8
LAYER0240
  6
CENTER
 62
     4
100
AcDbLine
 10
1949.001917553101
 20
-303.7292085581121
 30
0.0
 11
1949.001917553101
 21
-289.3802147182289
 31
0.0
  0
LINE
  5
390
330
1F
100
AcDbEntity
  8
LAYER0240
  6
CENTER
 62
     4
100
AcDbLine
 10
1729.001917553095
 20
-303.7292085581121
 30
0.0
 11
1729.001917553095
 21
-289.3802147182289
 31
0.0
  0
LINE
  5
391
330
1F
100
AcDbEntity
  8
LAYER0001
 62
     3
100
AcDbLine
 10
-1345.508918360215
 20
-768.9790079385239
 30
0.0
 11
-1342.906009907215
 21
-768.9790079385239
 31
0.0
  0
LINE
  5
392
330
1F
100
AcDbEntity
  8
LAYER0001
 62
     3
100
AcDbLine
 10
-1257.508918360215
 20
-766.9790079385239
 30
0.0
 11
-1259.366109188214
 21
-766.9790079385239
 31
0.0
  0
LINE
  5
393
330
1F
100
AcDbEntity
  8
LAYER0001
 62
     3
100
AcDbLine
 10
-1251.003204502214
 20
-753.8455967215239
 30
0.0
 11
-1248.890113194215
 21
-749.314057786524
 31
0.0
  0
LINE
  5
394
330
1F
100
AcDbEntity
  8
LAYER0001
 62
     3
100
AcDbLine
 10
-1248.890113194215
 20
-749.314057786524
 30
0.0
 11
-1250.838918965215
 21
-747.5777812925239
 31
0.0
  0
LINE
  5
395
330
1F
100
AcDbEntity
  8
LAYER0001
 62
     3
100
AcDbLine
 10
-1251.003204502214
 20
-753.8455967215239
 30
0.0
 11
-1253.585937666215
 21
-753.4687819075239
 31
0.0
  0
ARC
  5
396
330
1F
100
AcDbEntity
  8
LAYER0001
 62
     3
100
AcDbCircle
 10
-1331.508918360215
 20
-755.9790079385239
 30
0.0
 40
4.0
100
AcDbArc
 50
90.0
 51
149.9999999999999
  0
LINE
  5
397
330
1F
100
AcDbEntity
  8
LAYER0001
 62
     3
100
AcDbLine
 10
-1253.585937666215
 20
-753.4687819075239
 30
0.0
 11
-1250.838918965215
 21
-747.5777812925239
 31
0.0
  0
LINE
  5
398
330
1F
100
AcDbEntity
  8
LAYER0001
 62
     3
100
AcDbLine
 10
-1250.838918965215
 20
-747.5777812925239
 30
0.0
 11
-1252.409689776215
 21
-747.3970077925239
 31
0.0
  0
LINE
  5
399
330
1F
100
AcDbEntity
  8
LAYER0001
 62
     3
100
AcDbLine
 10
-1254.734090216215
 20
-752.381700621524
 30
0.0
 11
-1256.469507666214
 21
-752.9974216675239
 31
0.0
  0
LINE
  5
39A
330
1F
100
AcDbEntity
  8
LAYER0001
 62
     3
100
AcDbLine
 10
-1253.585937666215
 20
-753.4687819075239
 30
0.0
 11
-1254.734090216215
 21
-752.381700621524
 31
0.0
  0
LINE
  5
39B
330
1F
100
AcDbEntity
  8
LAYER0001
 62
     3
100
AcDbLine
 10
-1252.409689776215
 20
-747.3970077925239
 30
0.0
 11
-1253.053524926214
 21
-745.671823039524
 31
0.0
  0
LINE
  5
39C
330
1F
100
AcDbEntity
  8
LAYER0001
 62
     3
100
AcDbLine
 10
-1254.734090216215
 20
-752.381700621524
 30
0.0
 11
-1252.409689776215
 21
-747.3970077925239
 31
0.0
  0
LINE
  5
39D
330
1F
100
AcDbEntity
  8
LAYER0001
 62
     3
100
AcDbLine
 10
-1255.615511981215
 20
-751.1660220105239
 30
0.0
 11
-1257.144809042214
 21
-750.4528990785238
 31
0.0
  0
LINE
  5
39E
330
1F
100
AcDbEntity
  8
LAYER0001
 62
     3
100
AcDbLine
 10
-1253.907520611215
 20
-747.5032226965238
 30
0.0
 11
-1255.436817672214
 21
-746.790099765524
 31
0.0
  0
LINE
  5
39F
330
1F
100
AcDbEntity
  8
LAYER0001
 62
     3
100
AcDbLine
 10
-1255.759191311214
 20
-752.2138354305239
 30
0.0
 11
-1253.197204256215
 21
-746.719636460524
 31
0.0
  0
LINE
  5
3A0
330
1F
100
AcDbEntity
  8
LAYER0001
 62
     3
100
AcDbLine
 10
-1253.053524926214
 20
-745.671823039524
 30
0.0
 11
-1254.582821987214
 21
-744.958700108524
 31
0.0
  0
LINE
  5
3A1
330
1F
100
AcDbEntity
  8
LAYER0001
 62
     3
100
AcDbLine
 10
-1257.998804728215
 20
-752.2842987355239
 30
0.0
 11
-1256.469507666214
 21
-752.9974216675239
 31
0.0
  0
LINE
  5
3A2
330
1F
100
AcDbEntity
  8
LAYER0001
 62
     3
100
AcDbLine
 10
-1345.508918360215
 20
-764.9790079385239
 30
0.0
 11
-1342.397976617215
 21
-764.9790079385239
 31
0.0
  0
ARC
  5
3A3
330
1F
100
AcDbEntity
  8
LAYER0001
 62
     3
100
AcDbCircle
 10
-1257.380644752215
 20
-751.4577392735239
 30
0.0
 40
1.789075924
100
AcDbArc
 50
300.6157525319991
 51
369.3842474679993
  0
ARC
  5
3A4
330
1F
100
AcDbEntity
  8
LAYER0001
 62
     3
100
AcDbCircle
 10
-1260.539033780214
 20
-746.640521705524
 30
0.0
 40
6.687392608999999
100
AcDbArc
 50
317.412046226
 51
352.5879537740001
  0
ARC
  5
3A5
330
1F
100
AcDbEntity
  8
LAYER0001
 62
     3
100
AcDbCircle
 10
-1254.818657697215
 20
-745.963540303524
 30
0.0
 40
1.789075924
100
AcDbArc
 50
300.6157525319991
 51
369.3842474679993
  0
ARC
  5
3A6
330
1F
100
AcDbEntity
  8
LAYER0001
 62
     3
100
AcDbCircle
 10
-1333.508918360215
 20
-821.9790079385239
 30
0.0
 40
16.0
100
AcDbArc
 50
172.761713675
 51
270.0
  0
LINE
  5
3A7
330
1F
100
AcDbEntity
  8
LAYER0001
 62
     3
100
AcDbLine
 10
-1341.508918360215
 20
-753.9790079385239
 30
0.0
 11
-1341.508918360215
 21
-757.9790079385239
 31
0.0
  0
LINE
  5
3A8
330
1F
100
AcDbEntity
  8
LAYER0001
 62
     3
100
AcDbLine
 10
-1256.508918360215
 20
-744.1062837135239
 30
0.0
 11
-1254.600340310215
 21
-744.996268273524
 31
0.0
  0
LINE
  5
3A9
330
1F
100
AcDbEntity
  8
LAYER0001
 62
     3
100
AcDbLine
 10
-1254.582821987214
 20
-744.958700108524
 30
0.0
 11
-1257.998804728215
 21
-752.2842987355239
 31
0.0
  0
LINE
  5
3AA
330
1F
100
AcDbEntity
  8
LAYER0001
 62
     3
100
AcDbLine
 10
-1257.981286404214
 20
-752.2467305705238
 30
0.0
 11
-1259.478918359215
 21
-751.548373320524
 31
0.0
  0
LINE
  5
3AB
330
1F
100
AcDbEntity
  8
LAYER0001
 62
     3
100
AcDbLine
 10
-1264.132858867215
 20
-770.469671162524
 30
0.0
 11
-1272.245575247214
 21
-796.0910492495239
 31
0.0
  0
LINE
  5
3AC
330
1F
100
AcDbEntity
  8
LAYER0001
 62
     3
100
AcDbLine
 10
-1329.446571388215
 20
-837.9790079385239
 30
0.0
 11
-1333.508918360215
 21
-837.9790079385239
 31
0.0
  0
ARC
  5
3AD
330
1F
100
AcDbEntity
  8
LAYER0001
 62
     3
100
AcDbCircle
 10
-1331.508918360215
 20
-746.9790079385239
 30
0.0
 40
5.0
100
AcDbArc
 50
180.0
 51
270.0
  0
ARC
  5
3AE
330
1F
100
AcDbEntity
  8
LAYER0001
 62
     3
100
AcDbCircle
 10
-1261.508918360215
 20
-746.9790079385239
 30
0.0
 40
5.0
100
AcDbArc
 50
270.0
 51
360.0
  0
LINE
  5
3AF
330
1F
100
AcDbEntity
  8
LAYER0001
 62
     3
100
AcDbLine
 10
-1257.508918360215
 20
-755.9790079385239
 30
0.0
 11
-1257.508918360215
 21
-766.9790079385239
 31
0.0
  0
LINE
  5
3B0
330
1F
100
AcDbEntity
  8
LAYER0001
 62
     3
100
AcDbLine
 10
-1334.973019975215
 20
-753.9790079385239
 30
0.0
 11
-1341.508918360215
 21
-753.9790079385239
 31
0.0
  0
LINE
  5
3B1
330
1F
100
AcDbEntity
  8
LAYER0001
 62
     3
100
AcDbLine
 10
-1345.508918360215
 20
-756.9790079385239
 30
0.0
 11
-1345.508918360215
 21
-768.9790079385239
 31
0.0
  0
ARC
  5
3B2
330
1F
100
AcDbEntity
  8
LAYER0001
 62
     3
100
AcDbCircle
 10
-1261.508918360215
 20
-755.9790079385239
 30
0.0
 40
4.0
100
AcDbArc
 50
0.0
 51
90.0
  0
LINE
  5
3B3
330
1F
100
AcDbEntity
  8
LAYER0001
 62
     3
100
AcDbLine
 10
-1329.008918360215
 20
-735.9790079385239
 30
0.0
 11
-1264.008918360215
 21
-735.9790079385239
 31
0.0
  0
LINE
  5
3B4
330
1F
100
AcDbEntity
  8
LAYER0001
 62
     3
100
AcDbLine
 10
-1331.508918360215
 20
-751.9790079385239
 30
0.0
 11
-1261.508918360215
 21
-751.9790079385239
 31
0.0
  0
LINE
  5
3B5
330
1F
100
AcDbEntity
  8
LAYER0001
 62
     3
100
AcDbLine
 10
-1340.008918360215
 20
-741.9790079385239
 30
0.0
 11
-1253.008918360215
 21
-741.9790079385239
 31
0.0
  0
LINE
  5
3B6
330
1F
100
AcDbEntity
  8
LAYER0001
 62
     3
100
AcDbLine
 10
-1340.008918360215
 20
-741.9790079385239
 30
0.0
 11
-1340.008918360215
 21
-738.9790079385239
 31
0.0
  0
LINE
  5
3B7
330
1F
100
AcDbEntity
  8
LAYER0001
 62
     3
100
AcDbLine
 10
-1253.008918360215
 20
-738.9790079385239
 30
0.0
 11
-1253.008918360215
 21
-741.9790079385239
 31
0.0
  0
LINE
  5
3B8
330
1F
100
AcDbEntity
  8
LAYER0001
 62
     3
100
AcDbLine
 10
-1242.508918360215
 20
-731.9790079385239
 30
0.0
 11
-1350.508918360215
 21
-731.9790079385239
 31
0.0
  0
LINE
  5
3B9
330
1F
100
AcDbEntity
  8
LAYER0001
 62
     3
100
AcDbLine
 10
-1350.508918360215
 20
-731.9790079385239
 30
0.0
 11
-1350.508918360215
 21
-726.9790079385239
 31
0.0
  0
LINE
  5
3BA
330
1F
100
AcDbEntity
  8
LAYER0001
 62
     3
100
AcDbLine
 10
-1242.508918360215
 20
-726.9790079385239
 30
0.0
 11
-1242.508918360215
 21
-731.9790079385239
 31
0.0
  0
LINE
  5
3BB
330
1F
100
AcDbEntity
  8
LAYER0001
 62
     3
100
AcDbLine
 10
-1350.508918360215
 20
-726.9790079385239
 30
0.0
 11
-1242.508918360215
 21
-726.9790079385239
 31
0.0
  0
CIRCLE
  5
3BC
330
1F
100
AcDbEntity
  8
LAYER0001
 62
     3
100
AcDbCircle
 10
-1333.508918360215
 20
-820.9790079385239
 30
0.0
 40
11.0
  0
LINE
  5
3BD
330
1F
100
AcDbEntity
  8
LAYER0001
 62
     3
100
AcDbLine
 10
-1336.508918360215
 20
-741.9790079385239
 30
0.0
 11
-1336.508918360215
 21
-746.9790079385239
 31
0.0
  0
LINE
  5
3BE
330
1F
100
AcDbEntity
  8
LAYER0001
 62
     3
100
AcDbLine
 10
-1256.508918360215
 20
-741.9790079385239
 30
0.0
 11
-1256.508918360215
 21
-746.9790079385239
 31
0.0
  0
LINE
  5
3BF
330
1F
100
AcDbEntity
  8
LAYER0001
 62
     3
100
AcDbLine
 10
-1349.381410029215
 20
-819.9630693965239
 30
0.0
 11
-1341.508918360215
 21
-757.9790079385239
 31
0.0
  0
ARC
  5
3C0
330
1F
100
AcDbEntity
  8
LAYER0001
 62
     3
100
AcDbCircle
 10
-1341.508918360215
 20
-757.9790079385239
 30
0.0
 40
4.0
100
AcDbArc
 50
90.0
 51
180.0
  0
ARC
  5
3C1
330
1F
100
AcDbEntity
  8
LAYER0001
 62
     3
100
AcDbCircle
 10
-1259.366109188214
 20
-771.9790079385239
 30
0.0
 40
5.0
100
AcDbArc
 50
90.0
 51
162.4302046189999
  0
ARC
  5
3C2
330
1F
100
AcDbEntity
  8
LAYER0001
 62
     3
100
AcDbCircle
 10
-1329.446571388215
 20
-777.9790079385239
 30
0.0
 40
60.0
100
AcDbArc
 50
270.0
 51
342.4302046190001
  0
ARC
  5
3C3
330
1F
100
AcDbEntity
  8
LAYER0001
 62
     3
100
AcDbCircle
 10
-1333.508918360215
 20
-820.9790079385239
 30
0.0
 40
50.0
100
AcDbArc
 50
101.2723125463962
 51
364.811833758
  0
ARC
  5
3C4
330
1F
100
AcDbEntity
  8
LAYER0001
 62
     3
100
AcDbCircle
 10
-1333.508918360215
 20
-821.9790079385239
 30
0.0
 40
41.5
100
AcDbArc
 50
105.4391165530925
 51
355.892959598
  0
ARC
  5
3C5
330
1F
100
AcDbEntity
  8
LAYER0001
 62
     3
100
AcDbCircle
 10
-1333.508918360215
 20
-820.9790079385239
 30
0.0
 40
28.9
100
AcDbArc
 50
116.0788992416022
 51
333.4891470079999
  0
LINE
  5
3C6
330
1F
100
AcDbEntity
  8
LAYER0001
 62
     3
100
AcDbLine
 10
-1253.008918360215
 20
-741.9790079385239
 30
0.0
 11
-1253.008918360215
 21
-738.9790079385239
 31
0.0
  0
LINE
  5
3C7
330
1F
100
AcDbEntity
  8
LAYER0001
 62
     3
100
AcDbLine
 10
-657.5089183602145
 20
-768.9790079385239
 30
0.0
 11
-660.1118268132143
 21
-768.9790079385239
 31
0.0
  0
LINE
  5
3C8
330
1F
100
AcDbEntity
  8
LAYER0001
 62
     3
100
AcDbLine
 10
-745.5089183602145
 20
-766.9790079385239
 30
0.0
 11
-743.6517275322146
 21
-766.9790079385239
 31
0.0
  0
LINE
  5
3C9
330
1F
100
AcDbEntity
  8
LAYER0001
 62
     3
100
AcDbLine
 10
-752.0146322182145
 20
-753.8455967215239
 30
0.0
 11
-754.1277235262144
 21
-749.314057786524
 31
0.0
  0
LINE
  5
3CA
330
1F
100
AcDbEntity
  8
LAYER0001
 62
     3
100
AcDbLine
 10
-754.1277235262144
 20
-749.314057786524
 30
0.0
 11
-752.1789177552143
 21
-747.5777812925239
 31
0.0
  0
LINE
  5
3CB
330
1F
100
AcDbEntity
  8
LAYER0001
 62
     3
100
AcDbLine
 10
-752.0146322182145
 20
-753.8455967215239
 30
0.0
 11
-749.4318990542145
 21
-753.4687819075239
 31
0.0
  0
ARC
  5
3CC
330
1F
100
AcDbEntity
  8
LAYER0001
 62
     3
100
AcDbCircle
 10
-671.5089183602145
 20
-755.9790079385239
 30
0.0
 40
4.0
100
AcDbArc
 50
30.00000000000012
 51
90.00000000000001
  0
LINE
  5
3CD
330
1F
100
AcDbEntity
  8
LAYER0001
 62
     3
100
AcDbLine
 10
-749.4318990542145
 20
-753.4687819075239
 30
0.0
 11
-752.1789177552143
 21
-747.5777812925239
 31
0.0
  0
LINE
  5
3CE
330
1F
100
AcDbEntity
  8
LAYER0001
 62
     3
100
AcDbLine
 10
-752.1789177552143
 20
-747.5777812925239
 30
0.0
 11
-750.6081469442145
 21
-747.3970077925239
 31
0.0
  0
LINE
  5
3CF
330
1F
100
AcDbEntity
  8
LAYER0001
 62
     3
100
AcDbLine
 10
-748.2837465042144
 20
-752.381700621524
 30
0.0
 11
-746.5483290542145
 21
-752.9974216675239
 31
0.0
  0
LINE
  5
3D0
330
1F
100
AcDbEntity
  8
LAYER0001
 62
     3
100
AcDbLine
 10
-749.4318990542145
 20
-753.4687819075239
 30
0.0
 11
-748.2837465042144
 21
-752.381700621524
 31
0.0
  0
LINE
  5
3D1
330
1F
100
AcDbEntity
  8
LAYER0001
 62
     3
100
AcDbLine
 10
-750.6081469442145
 20
-747.3970077925239
 30
0.0
 11
-749.9643117942146
 21
-745.671823039524
 31
0.0
  0
LINE
  5
3D2
330
1F
100
AcDbEntity
  8
LAYER0001
 62
     3
100
AcDbLine
 10
-748.2837465042144
 20
-752.381700621524
 30
0.0
 11
-750.6081469442145
 21
-747.3970077925239
 31
0.0
  0
LINE
  5
3D3
330
1F
100
AcDbEntity
  8
LAYER0001
 62
     3
100
AcDbLine
 10
-747.4023247392145
 20
-751.1660220105239
 30
0.0
 11
-745.8730276782146
 21
-750.4528990785238
 31
0.0
  0
LINE
  5
3D4
330
1F
100
AcDbEntity
  8
LAYER0001
 62
     3
100
AcDbLine
 10
-749.1103161092144
 20
-747.5032226965238
 30
0.0
 11
-747.5810190482146
 21
-746.790099765524
 31
0.0
  0
LINE
  5
3D5
330
1F
100
AcDbEntity
  8
LAYER0001
 62
     3
100
AcDbLine
 10
-747.2586454092145
 20
-752.2138354305239
 30
0.0
 11
-749.8206324642144
 21
-746.719636460524
 31
0.0
  0
LINE
  5
3D6
330
1F
100
AcDbEntity
  8
LAYER0001
 62
     3
100
AcDbLine
 10
-749.9643117942146
 20
-745.671823039524
 30
0.0
 11
-748.4350147332145
 21
-744.958700108524
 31
0.0
  0
LINE
  5
3D7
330
1F
100
AcDbEntity
  8
LAYER0001
 62
     3
100
AcDbLine
 10
-745.0190319922144
 20
-752.2842987355239
 30
0.0
 11
-746.5483290542145
 21
-752.9974216675239
 31
0.0
  0
LINE
  5
3D8
330
1F
100
AcDbEntity
  8
LAYER0001
 62
     3
100
AcDbLine
 10
-657.5089183602145
 20
-764.9790079385239
 30
0.0
 11
-660.6198601032145
 21
-764.9790079385239
 31
0.0
  0
ARC
  5
3D9
330
1F
100
AcDbEntity
  8
LAYER0001
 62
     3
100
AcDbCircle
 10
-745.6371919682144
 20
-751.4577392735239
 30
0.0
 40
1.789075924
100
AcDbArc
 50
170.6157525320007
 51
239.3842474680009
  0
ARC
  5
3DA
330
1F
100
AcDbEntity
  8
LAYER0001
 62
     3
100
AcDbCircle
 10
-742.4788029402146
 20
-746.640521705524
 30
0.0
 40
6.687392608999999
100
AcDbArc
 50
187.4120462259998
 51
222.587953774
  0
ARC
  5
3DB
330
1F
100
AcDbEntity
  8
LAYER0001
 62
     3
100
AcDbCircle
 10
-748.1991790232144
 20
-745.963540303524
 30
0.0
 40
1.789075924
100
AcDbArc
 50
170.6157525320007
 51
239.3842474680009
  0
ARC
  5
3DC
330
1F
100
AcDbEntity
  8
LAYER0001
 62
     3
100
AcDbCircle
 10
-669.5089183602145
 20
-821.9790079385239
 30
0.0
 40
16.0
100
AcDbArc
 50
270.0
 51
367.238286325
  0
LINE
  5
3DD
330
1F
100
AcDbEntity
  8
LAYER0001
 62
     3
100
AcDbLine
 10
-661.5089183602145
 20
-753.9790079385239
 30
0.0
 11
-661.5089183602145
 21
-757.9790079385239
 31
0.0
  0
LINE
  5
3DE
330
1F
100
AcDbEntity
  8
LAYER0001
 62
     3
100
AcDbLine
 10
-746.5089183602145
 20
-744.1062837135239
 30
0.0
 11
-748.4174964102144
 21
-744.996268273524
 31
0.0
  0
LINE
  5
3DF
330
1F
100
AcDbEntity
  8
LAYER0001
 62
     3
100
AcDbLine
 10
-748.4350147332145
 20
-744.958700108524
 30
0.0
 11
-745.0190319922144
 21
-752.2842987355239
 31
0.0
  0
LINE
  5
3E0
330
1F
100
AcDbEntity
  8
LAYER0001
 62
     3
100
AcDbLine
 10
-745.0365503162145
 20
-752.2467305705238
 30
0.0
 11
-743.5389183612144
 21
-751.548373320524
 31
0.0
  0
LINE
  5
3E1
330
1F
100
AcDbEntity
  8
LAYER0001
 62
     3
100
AcDbLine
 10
-738.8849778532144
 20
-770.469671162524
 30
0.0
 11
-730.7722614732145
 21
-796.0910492495239
 31
0.0
  0
LINE
  5
3E2
330
1F
100
AcDbEntity
  8
LAYER0001
 62
     3
100
AcDbLine
 10
-673.5712653322144
 20
-837.9790079385239
 30
0.0
 11
-669.5089183602145
 21
-837.9790079385239
 31
0.0
  0
ARC
  5
3E3
330
1F
100
AcDbEntity
  8
LAYER0001
 62
     3
100
AcDbCircle
 10
-671.5089183602145
 20
-746.9790079385239
 30
0.0
 40
5.0
100
AcDbArc
 50
270.0
 51
360.0
  0
ARC
  5
3E4
330
1F
100
AcDbEntity
  8
LAYER0001
 62
     3
100
AcDbCircle
 10
-741.5089183602145
 20
-746.9790079385239
 30
0.0
 40
5.0
100
AcDbArc
 50
180.0
 51
270.0
  0
LINE
  5
3E5
330
1F
100
AcDbEntity
  8
LAYER0001
 62
     3
100
AcDbLine
 10
-745.5089183602145
 20
-755.9790079385239
 30
0.0
 11
-745.5089183602145
 21
-766.9790079385239
 31
0.0
  0
LINE
  5
3E6
330
1F
100
AcDbEntity
  8
LAYER0001
 62
     3
100
AcDbLine
 10
-668.0448167452144
 20
-753.9790079385239
 30
0.0
 11
-661.5089183602145
 21
-753.9790079385239
 31
0.0
  0
LINE
  5
3E7
330
1F
100
AcDbEntity
  8
LAYER0001
 62
     3
100
AcDbLine
 10
-657.5089183602145
 20
-756.9790079385239
 30
0.0
 11
-657.5089183602145
 21
-768.9790079385239
 31
0.0
  0
ARC
  5
3E8
330
1F
100
AcDbEntity
  8
LAYER0001
 62
     3
100
AcDbCircle
 10
-741.5089183602145
 20
-755.9790079385239
 30
0.0
 40
4.0
100
AcDbArc
 50
90.00000000000001
 51
180.0
  0
LINE
  5
3E9
330
1F
100
AcDbEntity
  8
LAYER0001
 62
     3
100
AcDbLine
 10
-674.0089183602145
 20
-735.9790079385239
 30
0.0
 11
-739.0089183602145
 21
-735.9790079385239
 31
0.0
  0
LINE
  5
3EA
330
1F
100
AcDbEntity
  8
LAYER0001
 62
     3
100
AcDbLine
 10
-671.5089183602145
 20
-751.9790079385239
 30
0.0
 11
-741.5089183602145
 21
-751.9790079385239
 31
0.0
  0
LINE
  5
3EB
330
1F
100
AcDbEntity
  8
LAYER0001
 62
     3
100
AcDbLine
 10
-663.0089183602145
 20
-741.9790079385239
 30
0.0
 11
-750.0089183602145
 21
-741.9790079385239
 31
0.0
  0
LINE
  5
3EC
330
1F
100
AcDbEntity
  8
LAYER0001
 62
     3
100
AcDbLine
 10
-663.0089183602145
 20
-741.9790079385239
 30
0.0
 11
-663.0089183602145
 21
-738.9790079385239
 31
0.0
  0
LINE
  5
3ED
330
1F
100
AcDbEntity
  8
LAYER0001
 62
     3
100
AcDbLine
 10
-750.0089183602145
 20
-738.9790079385239
 30
0.0
 11
-750.0089183602145
 21
-741.9790079385239
 31
0.0
  0
LINE
  5
3EE
330
1F
100
AcDbEntity
  8
LAYER0001
 62
     3
100
AcDbLine
 10
-760.5089183602145
 20
-731.9790079385239
 30
0.0
 11
-652.5089183602142
 21
-731.9790079385239
 31
0.0
  0
LINE
  5
3EF
330
1F
100
AcDbEntity
  8
LAYER0001
 62
     3
100
AcDbLine
 10
-652.5089183602142
 20
-731.9790079385239
 30
0.0
 11
-652.5089183602142
 21
-726.9790079385239
 31
0.0
  0
LINE
  5
3F0
330
1F
100
AcDbEntity
  8
LAYER0001
 62
     3
100
AcDbLine
 10
-760.5089183602145
 20
-726.9790079385239
 30
0.0
 11
-760.5089183602145
 21
-731.9790079385239
 31
0.0
  0
LINE
  5
3F1
330
1F
100
AcDbEntity
  8
LAYER0001
 62
     3
100
AcDbLine
 10
-652.5089183602142
 20
-726.9790079385239
 30
0.0
 11
-760.5089183602145
 21
-726.9790079385239
 31
0.0
  0
CIRCLE
  5
3F2
330
1F
100
AcDbEntity
  8
LAYER0001
 62
     3
100
AcDbCircle
 10
-669.5089183602145
 20
-820.9790079385239
 30
0.0
 40
11.0
  0
LINE
  5
3F3
330
1F
100
AcDbEntity
  8
LAYER0001
 62
     3
100
AcDbLine
 10
-666.5089183602145
 20
-741.9790079385239
 30
0.0
 11
-666.5089183602145
 21
-746.9790079385239
 31
0.0
  0
LINE
  5
3F4
330
1F
100
AcDbEntity
  8
LAYER0001
 62
     3
100
AcDbLine
 10
-746.5089183602145
 20
-741.9790079385239
 30
0.0
 11
-746.5089183602145
 21
-746.9790079385239
 31
0.0
  0
LINE
  5
3F5
330
1F
100
AcDbEntity
  8
LAYER0001
 62
     3
100
AcDbLine
 10
-653.6364266912144
 20
-819.9630693965239
 30
0.0
 11
-661.5089183602145
 21
-757.9790079385239
 31
0.0
  0
ARC
  5
3F6
330
1F
100
AcDbEntity
  8
LAYER0001
 62
     3
100
AcDbCircle
 10
-661.5089183602145
 20
-757.9790079385239
 30
0.0
 40
4.0
100
AcDbArc
 50
0.000000000000007
 51
90.00000000000001
  0
ARC
  5
3F7
330
1F
100
AcDbEntity
  8
LAYER0001
 62
     3
100
AcDbCircle
 10
-743.6517275322146
 20
-771.9790079385239
 30
0.0
 40
5.0
100
AcDbArc
 50
17.56979538100016
 51
90.00000000000001
  0
ARC
  5
3F8
330
1F
100
AcDbEntity
  8
LAYER0001
 62
     3
100
AcDbCircle
 10
-673.5712653322144
 20
-777.9790079385239
 30
0.0
 40
60.0
100
AcDbArc
 50
197.569795381
 51
270.0
  0
ARC
  5
3F9
330
1F
100
AcDbEntity
  8
LAYER0001
 62
     3
100
AcDbCircle
 10
-669.5089183602145
 20
-820.9790079385239
 30
0.0
 40
50.0
100
AcDbArc
 50
175.188166242
 51
438.7276874536038
  0
ARC
  5
3FA
330
1F
100
AcDbEntity
  8
LAYER0001
 62
     3
100
AcDbCircle
 10
-669.5089183602145
 20
-821.9790079385239
 30
0.0
 40
41.5
100
AcDbArc
 50
184.107040402
 51
434.5608834469075
  0
ARC
  5
3FB
330
1F
100
AcDbEntity
  8
LAYER0001
 62
     3
100
AcDbCircle
 10
-669.5089183602145
 20
-820.9790079385239
 30
0.0
 40
28.9
100
AcDbArc
 50
206.5108529920001
 51
423.9211007583978
  0
LINE
  5
3FC
330
1F
100
AcDbEntity
  8
LAYER0001
 62
     3
100
AcDbLine
 10
-750.0089183602145
 20
-741.9790079385239
 30
0.0
 11
-750.0089183602145
 21
-738.9790079385239
 31
0.0
  0
LINE
  5
3FD
330
1F
100
AcDbEntity
  8
LAYER0001
 62
     3
100
AcDbLine
 10
1295.001917553098
 20
-768.9790079385239
 30
0.0
 11
1297.604826006098
 21
-768.9790079385239
 31
0.0
  0
LINE
  5
3FE
330
1F
100
AcDbEntity
  8
LAYER0001
 62
     3
100
AcDbLine
 10
1383.001917553098
 20
-766.9790079385239
 30
0.0
 11
1381.144726725099
 21
-766.9790079385239
 31
0.0
  0
LINE
  5
3FF
330
1F
100
AcDbEntity
  8
LAYER0001
 62
     3
100
AcDbLine
 10
1389.507631411098
 20
-753.8455967215239
 30
0.0
 11
1391.620722719098
 21
-749.314057786524
 31
0.0
  0
LINE
  5
400
330
1F
100
AcDbEntity
  8
LAYER0001
 62
     3
100
AcDbLine
 10
1391.620722719098
 20
-749.314057786524
 30
0.0
 11
1389.671916948098
 21
-747.5777812925239
 31
0.0
  0
LINE
  5
401
330
1F
100
AcDbEntity
  8
LAYER0001
 62
     3
100
AcDbLine
 10
1389.507631411098
 20
-753.8455967215239
 30
0.0
 11
1386.924898247098
 21
-753.4687819075239
 31
0.0
  0
ARC
  5
402
330
1F
100
AcDbEntity
  8
LAYER0001
 62
     3
100
AcDbCircle
 10
1309.001917553098
 20
-755.9790079385239
 30
0.0
 40
4.0
100
AcDbArc
 50
90.0
 51
149.9999999999999
  0
LINE
  5
403
330
1F
100
AcDbEntity
  8
LAYER0001
 62
     3
100
AcDbLine
 10
1386.924898247098
 20
-753.4687819075239
 30
0.0
 11
1389.671916948098
 21
-747.5777812925239
 31
0.0
  0
LINE
  5
404
330
1F
100
AcDbEntity
  8
LAYER0001
 62
     3
100
AcDbLine
 10
1389.671916948098
 20
-747.5777812925239
 30
0.0
 11
1388.101146137098
 21
-747.3970077925239
 31
0.0
  0
LINE
  5
405
330
1F
100
AcDbEntity
  8
LAYER0001
 62
     3
100
AcDbLine
 10
1385.776745697098
 20
-752.381700621524
 30
0.0
 11
1384.041328247098
 21
-752.9974216675239
 31
0.0
  0
LINE
  5
406
330
1F
100
AcDbEntity
  8
LAYER0001
 62
     3
100
AcDbLine
 10
1386.924898247098
 20
-753.4687819075239
 30
0.0
 11
1385.776745697098
 21
-752.381700621524
 31
0.0
  0
LINE
  5
407
330
1F
100
AcDbEntity
  8
LAYER0001
 62
     3
100
AcDbLine
 10
1388.101146137098
 20
-747.3970077925239
 30
0.0
 11
1387.457310987099
 21
-745.671823039524
 31
0.0
  0
LINE
  5
408
330
1F
100
AcDbEntity
  8
LAYER0001
 62
     3
100
AcDbLine
 10
1385.776745697098
 20
-752.381700621524
 30
0.0
 11
1388.101146137098
 21
-747.3970077925239
 31
0.0
  0
LINE
  5
409
330
1F
100
AcDbEntity
  8
LAYER0001
 62
     3
100
AcDbLine
 10
1384.895323932098
 20
-751.1660220105239
 30
0.0
 11
1383.366026871099
 21
-750.4528990785238
 31
0.0
  0
LINE
  5
40A
330
1F
100
AcDbEntity
  8
LAYER0001
 62
     3
100
AcDbLine
 10
1386.603315302098
 20
-747.5032226965238
 30
0.0
 11
1385.074018241098
 21
-746.790099765524
 31
0.0
  0
LINE
  5
40B
330
1F
100
AcDbEntity
  8
LAYER0001
 62
     3
100
AcDbLine
 10
1384.751644602098
 20
-752.2138354305239
 30
0.0
 11
1387.313631657098
 21
-746.719636460524
 31
0.0
  0
LINE
  5
40C
330
1F
100
AcDbEntity
  8
LAYER0001
 62
     3
100
AcDbLine
 10
1387.457310987099
 20
-745.671823039524
 30
0.0
 11
1385.928013926098
 21
-744.958700108524
 31
0.0
  0
LINE
  5
40D
330
1F
100
AcDbEntity
  8
LAYER0001
 62
     3
100
AcDbLine
 10
1382.512031185098
 20
-752.2842987355239
 30
0.0
 11
1384.041328247098
 21
-752.9974216675239
 31
0.0
  0
LINE
  5
40E
330
1F
100
AcDbEntity
  8
LAYER0001
 62
     3
100
AcDbLine
 10
1295.001917553098
 20
-764.9790079385239
 30
0.0
 11
1298.112859296098
 21
-764.9790079385239
 31
0.0
  0
ARC
  5
40F
330
1F
100
AcDbEntity
  8
LAYER0001
 62
     3
100
AcDbCircle
 10
1383.130191161098
 20
-751.4577392735239
 30
0.0
 40
1.789075924
100
AcDbArc
 50
300.6157525319991
 51
369.3842474679993
  0
ARC
  5
410
330
1F
100
AcDbEntity
  8
LAYER0001
 62
     3
100
AcDbCircle
 10
1379.971802133098
 20
-746.640521705524
 30
0.0
 40
6.687392608999999
100
AcDbArc
 50
317.412046226
 51
352.5879537740001
  0
ARC
  5
411
330
1F
100
AcDbEntity
  8
LAYER0001
 62
     3
100
AcDbCircle
 10
1385.692178216098
 20
-745.963540303524
 30
0.0
 40
1.789075924
100
AcDbArc
 50
300.6157525319991
 51
369.3842474679993
  0
ARC
  5
412
330
1F
100
AcDbEntity
  8
LAYER0001
 62
     3
100
AcDbCircle
 10
1307.001917553098
 20
-821.9790079385239
 30
0.0
 40
16.0
100
AcDbArc
 50
172.761713675
 51
270.0
  0
LINE
  5
413
330
1F
100
AcDbEntity
  8
LAYER0001
 62
     3
100
AcDbLine
 10
1299.001917553098
 20
-753.9790079385239
 30
0.0
 11
1299.001917553098
 21
-757.9790079385239
 31
0.0
  0
LINE
  5
414
330
1F
100
AcDbEntity
  8
LAYER0001
 62
     3
100
AcDbLine
 10
1384.001917553098
 20
-744.1062837135239
 30
0.0
 11
1385.910495603098
 21
-744.996268273524
 31
0.0
  0
LINE
  5
415
330
1F
100
AcDbEntity
  8
LAYER0001
 62
     3
100
AcDbLine
 10
1385.928013926098
 20
-744.958700108524
 30
0.0
 11
1382.512031185098
 21
-752.2842987355239
 31
0.0
  0
LINE
  5
416
330
1F
100
AcDbEntity
  8
LAYER0001
 62
     3
100
AcDbLine
 10
1382.529549509098
 20
-752.2467305705238
 30
0.0
 11
1381.031917554098
 21
-751.548373320524
 31
0.0
  0
LINE
  5
417
330
1F
100
AcDbEntity
  8
LAYER0001
 62
     3
100
AcDbLine
 10
1376.377977046098
 20
-770.469671162524
 30
0.0
 11
1368.265260666098
 21
-796.0910492495239
 31
0.0
  0
LINE
  5
418
330
1F
100
AcDbEntity
  8
LAYER0001
 62
     3
100
AcDbLine
 10
1311.064264525098
 20
-837.9790079385239
 30
0.0
 11
1307.001917553098
 21
-837.9790079385239
 31
0.0
  0
ARC
  5
419
330
1F
100
AcDbEntity
  8
LAYER0001
 62
     3
100
AcDbCircle
 10
1309.001917553098
 20
-746.9790079385239
 30
0.0
 40
5.0
100
AcDbArc
 50
180.0
 51
270.0
  0
ARC
  5
41A
330
1F
100
AcDbEntity
  8
LAYER0001
 62
     3
100
AcDbCircle
 10
1379.001917553098
 20
-746.9790079385239
 30
0.0
 40
5.0
100
AcDbArc
 50
270.0
 51
360.0
  0
LINE
  5
41B
330
1F
100
AcDbEntity
  8
LAYER0001
 62
     3
100
AcDbLine
 10
1383.001917553098
 20
-755.9790079385239
 30
0.0
 11
1383.001917553098
 21
-766.9790079385239
 31
0.0
  0
LINE
  5
41C
330
1F
100
AcDbEntity
  8
LAYER0001
 62
     3
100
AcDbLine
 10
1305.537815938098
 20
-753.9790079385239
 30
0.0
 11
1299.001917553098
 21
-753.9790079385239
 31
0.0
  0
LINE
  5
41D
330
1F
100
AcDbEntity
  8
LAYER0001
 62
     3
100
AcDbLine
 10
1295.001917553098
 20
-756.9790079385239
 30
0.0
 11
1295.001917553098
 21
-768.9790079385239
 31
0.0
  0
ARC
  5
41E
330
1F
100
AcDbEntity
  8
LAYER0001
 62
     3
100
AcDbCircle
 10
1379.001917553098
 20
-755.9790079385239
 30
0.0
 40
4.0
100
AcDbArc
 50
0.0
 51
90.0
  0
LINE
  5
41F
330
1F
100
AcDbEntity
  8
LAYER0001
 62
     3
100
AcDbLine
 10
1311.501917553098
 20
-735.9790079385239
 30
0.0
 11
1376.501917553098
 21
-735.9790079385239
 31
0.0
  0
LINE
  5
420
330
1F
100
AcDbEntity
  8
LAYER0001
 62
     3
100
AcDbLine
 10
1309.001917553098
 20
-751.9790079385239
 30
0.0
 11
1379.001917553098
 21
-751.9790079385239
 31
0.0
  0
LINE
  5
421
330
1F
100
AcDbEntity
  8
LAYER0001
 62
     3
100
AcDbLine
 10
1300.501917553098
 20
-741.9790079385239
 30
0.0
 11
1387.501917553098
 21
-741.9790079385239
 31
0.0
  0
LINE
  5
422
330
1F
100
AcDbEntity
  8
LAYER0001
 62
     3
100
AcDbLine
 10
1300.501917553098
 20
-741.9790079385239
 30
0.0
 11
1300.501917553098
 21
-738.9790079385239
 31
0.0
  0
LINE
  5
423
330
1F
100
AcDbEntity
  8
LAYER0001
 62
     3
100
AcDbLine
 10
1387.501917553098
 20
-738.9790079385239
 30
0.0
 11
1387.501917553098
 21
-741.9790079385239
 31
0.0
  0
LINE
  5
424
330
1F
100
AcDbEntity
  8
LAYER0001
 62
     3
100
AcDbLine
 10
1398.001917553098
 20
-731.9790079385239
 30
0.0
 11
1290.001917553098
 21
-731.9790079385239
 31
0.0
  0
LINE
  5
425
330
1F
100
AcDbEntity
  8
LAYER0001
 62
     3
100
AcDbLine
 10
1290.001917553098
 20
-731.9790079385239
 30
0.0
 11
1290.001917553098
 21
-726.9790079385239
 31
0.0
  0
LINE
  5
426
330
1F
100
AcDbEntity
  8
LAYER0001
 62
     3
100
AcDbLine
 10
1398.001917553098
 20
-726.9790079385239
 30
0.0
 11
1398.001917553098
 21
-731.9790079385239
 31
0.0
  0
LINE
  5
427
330
1F
100
AcDbEntity
  8
LAYER0001
 62
     3
100
AcDbLine
 10
1290.001917553098
 20
-726.9790079385239
 30
0.0
 11
1398.001917553098
 21
-726.9790079385239
 31
0.0
  0
CIRCLE
  5
428
330
1F
100
AcDbEntity
  8
LAYER0001
 62
     3
100
AcDbCircle
 10
1307.001917553098
 20
-820.9790079385239
 30
0.0
 40
11.0
  0
LINE
  5
429
330
1F
100
AcDbEntity
  8
LAYER0001
 62
     3
100
AcDbLine
 10
1304.001917553098
 20
-741.9790079385239
 30
0.0
 11
1304.001917553098
 21
-746.9790079385239
 31
0.0
  0
LINE
  5
42A
330
1F
100
AcDbEntity
  8
LAYER0001
 62
     3
100
AcDbLine
 10
1384.001917553098
 20
-741.9790079385239
 30
0.0
 11
1384.001917553098
 21
-746.9790079385239
 31
0.0
  0
LINE
  5
42B
330
1F
100
AcDbEntity
  8
LAYER0001
 62
     3
100
AcDbLine
 10
1291.129425884098
 20
-819.9630693965239
 30
0.0
 11
1299.001917553098
 21
-757.9790079385239
 31
0.0
  0
ARC
  5
42C
330
1F
100
AcDbEntity
  8
LAYER0001
 62
     3
100
AcDbCircle
 10
1299.001917553098
 20
-757.9790079385239
 30
0.0
 40
4.0
100
AcDbArc
 50
90.0
 51
180.0
  0
ARC
  5
42D
330
1F
100
AcDbEntity
  8
LAYER0001
 62
     3
100
AcDbCircle
 10
1381.144726725099
 20
-771.9790079385239
 30
0.0
 40
5.0
100
AcDbArc
 50
90.0
 51
162.4302046189999
  0
ARC
  5
42E
330
1F
100
AcDbEntity
  8
LAYER0001
 62
     3
100
AcDbCircle
 10
1311.064264525098
 20
-777.9790079385239
 30
0.0
 40
60.0
100
AcDbArc
 50
270.0
 51
342.4302046190001
  0
ARC
  5
42F
330
1F
100
AcDbEntity
  8
LAYER0001
 62
     3
100
AcDbCircle
 10
1307.001917553098
 20
-820.9790079385239
 30
0.0
 40
50.0
100
AcDbArc
 50
101.2723125463962
 51
364.811833758
  0
ARC
  5
430
330
1F
100
AcDbEntity
  8
LAYER0001
 62
     3
100
AcDbCircle
 10
1307.001917553098
 20
-821.9790079385239
 30
0.0
 40
41.5
100
AcDbArc
 50
105.4391165530925
 51
355.892959598
  0
ARC
  5
431
330
1F
100
AcDbEntity
  8
LAYER0001
 62
     3
100
AcDbCircle
 10
1307.001917553098
 20
-820.9790079385239
 30
0.0
 40
28.9
100
AcDbArc
 50
116.0788992416022
 51
333.4891470079999
  0
LINE
  5
432
330
1F
100
AcDbEntity
  8
LAYER0001
 62
     3
100
AcDbLine
 10
1387.501917553098
 20
-741.9790079385239
 30
0.0
 11
1387.501917553098
 21
-738.9790079385239
 31
0.0
  0
LINE
  5
433
330
1F
100
AcDbEntity
  8
LAYER0001
  6
CENTER
 62
     4
100
AcDbLine
 10
-1258.611503292215
 20
-747.5393439335239
 30
0.0
 11
-1248.987465621214
 21
-752.027106401524
 31
0.0
  0
LINE
  5
434
330
1F
100
AcDbEntity
  8
LAYER0001
  6
CENTER
 62
     4
100
AcDbLine
 10
-1336.508918360215
 20
-725.0296197233682
 30
0.0
 11
-1336.508918360215
 21
-741.9790079385239
 31
0.0
  0
LINE
  5
435
330
1F
100
AcDbEntity
  8
LAYER0001
  6
CENTER
 62
     4
100
AcDbLine
 10
-1389.922189183215
 20
-820.9790079385239
 30
0.0
 11
-1276.539291727215
 21
-820.9790079385239
 31
0.0
  0
LINE
  5
436
330
1F
100
AcDbEntity
  8
LAYER0001
  6
CENTER
 62
     4
100
AcDbLine
 10
-1333.508918360215
 20
-768.4790079385239
 30
0.0
 11
-1333.508918360215
 21
-879.056745022524
 31
0.0
  0
LINE
  5
437
330
1F
100
AcDbEntity
  8
LAYER0001
  6
CENTER
 62
     4
100
AcDbLine
 10
-1256.508918360215
 20
-725.0296197233682
 30
0.0
 11
-1256.508918360215
 21
-741.9790079385239
 31
0.0
  0
LINE
  5
438
330
1F
100
AcDbEntity
  8
LAYER0001
  6
CENTER
 62
     4
100
AcDbLine
 10
-744.4063334282143
 20
-747.5393439335239
 30
0.0
 11
-754.0303710992146
 21
-752.027106401524
 31
0.0
  0
LINE
  5
439
330
1F
100
AcDbEntity
  8
LAYER0001
  6
CENTER
 62
     4
100
AcDbLine
 10
-666.5089183602145
 20
-725.0296197233682
 30
0.0
 11
-666.5089183602145
 21
-741.9790079385239
 31
0.0
  0
LINE
  5
43A
330
1F
100
AcDbEntity
  8
LAYER0001
  6
CENTER
 62
     4
100
AcDbLine
 10
-613.0956475372143
 20
-820.9790079385239
 30
0.0
 11
-726.4785449932144
 21
-820.9790079385239
 31
0.0
  0
LINE
  5
43B
330
1F
100
AcDbEntity
  8
LAYER0001
  6
CENTER
 62
     4
100
AcDbLine
 10
-669.5089183602145
 20
-768.4790079385239
 30
0.0
 11
-669.5089183602145
 21
-879.056745022524
 31
0.0
  0
LINE
  5
43C
330
1F
100
AcDbEntity
  8
LAYER0001
  6
CENTER
 62
     4
100
AcDbLine
 10
-746.5089183602145
 20
-725.0296197233682
 30
0.0
 11
-746.5089183602145
 21
-741.9790079385239
 31
0.0
  0
LINE
  5
43D
330
1F
100
AcDbEntity
  8
LAYER0001
  6
CENTER
 62
     4
100
AcDbLine
 10
1381.899332621098
 20
-747.5393439335239
 30
0.0
 11
1391.523370292098
 21
-752.027106401524
 31
0.0
  0
LINE
  5
43E
330
1F
100
AcDbEntity
  8
LAYER0001
  6
CENTER
 62
     4
100
AcDbLine
 10
1304.001917553098
 20
-725.0296197233682
 30
0.0
 11
1304.001917553098
 21
-741.9790079385239
 31
0.0
  0
LINE
  5
43F
330
1F
100
AcDbEntity
  8
LAYER0001
  6
CENTER
 62
     4
100
AcDbLine
 10
1250.588646730098
 20
-820.9790079385239
 30
0.0
 11
1363.971544186098
 21
-820.9790079385239
 31
0.0
  0
LINE
  5
440
330
1F
100
AcDbEntity
  8
LAYER0001
  6
CENTER
 62
     4
100
AcDbLine
 10
1307.001917553098
 20
-768.4790079385239
 30
0.0
 11
1307.001917553098
 21
-879.056745022524
 31
0.0
  0
LINE
  5
441
330
1F
100
AcDbEntity
  8
LAYER0001
  6
CENTER
 62
     4
100
AcDbLine
 10
1384.001917553098
 20
-725.0296197233682
 30
0.0
 11
1384.001917553098
 21
-741.9790079385239
 31
0.0
  0
INSERT
  5
442
330
1F
100
AcDbEntity
  8
LAYER0032
  6
CONTINUOUS
100
AcDbBlockReference
  2
DC_GROUP_2
 10
0.0
 20
0.0
 30
0.0
  0
INSERT
  5
443
330
1F
100
AcDbEntity
  8
LAYER0032
  6
CONTINUOUS
100
AcDbBlockReference
  2
DC_GROUP_3
 10
0.0
 20
0.0
 30
0.0
  0
INSERT
  5
444
330
1F
100
AcDbEntity
  8
LAYER0032
  6
CONTINUOUS
100
AcDbBlockReference
  2
DC_GROUP_4
 10
0.0
 20
0.0
 30
0.0
  0
INSERT
  5
445
330
1F
100
AcDbEntity
  8
LAYER0032
  6
CONTINUOUS
100
AcDbBlockReference
  2
DC_GROUP_5
 10
0.0
 20
0.0
 30
0.0
  0
INSERT
  5
446
330
1F
100
AcDbEntity
  8
LAYER0032
  6
CONTINUOUS
100
AcDbBlockReference
  2
DC_GROUP_16
 10
0.0
 20
0.0
 30
0.0
  0
INSERT
  5
447
330
1F
100
AcDbEntity
  8
LAYER0032
  6
CONTINUOUS
100
AcDbBlockReference
  2
DC_GROUP_17
 10
0.0
 20
0.0
 30
0.0
  0
INSERT
  5
448
330
1F
100
AcDbEntity
  8
LAYER0032
  6
CONTINUOUS
100
AcDbBlockReference
  2
DC_GROUP_18
 10
0.0
 20
0.0
 30
0.0
  0
CIRCLE
  5
449
330
1F
100
AcDbEntity
  8
LAYER0016
 62
   150
100
AcDbCircle
 10
1489.001917553104
 20
-465.9790079385237
 30
0.0
 40
21.0
  0
LINE
  5
44A
330
1F
100
AcDbEntity
  8
LAYER0016
 62
   150
100
AcDbLine
 10
1495.501917553104
 20
-545.9790079385238
 30
0.0
 11
1482.501917553104
 21
-545.9790079385238
 31
0.0
  0
LINE
  5
44B
330
1F
100
AcDbEntity
  8
LAYER0016
 62
   150
100
AcDbLine
 10
1495.501917553104
 20
-551.9790079385238
 30
0.0
 11
1482.501917553104
 21
-551.9790079385238
 31
0.0
  0
ARC
  5
44C
330
1F
100
AcDbEntity
  8
LAYER0016
 62
   150
100
AcDbCircle
 10
1495.501917553104
 20
-535.9790079385238
 30
0.0
 40
10.0
100
AcDbArc
 50
270.0
 51
360.0
  0
ARC
  5
44D
330
1F
100
AcDbEntity
  8
LAYER0016
 62
   150
100
AcDbCircle
 10
1482.501917553104
 20
-535.9790079385238
 30
0.0
 40
10.0
100
AcDbArc
 50
180.0
 51
270.0
  0
LINE
  5
44E
330
1F
100
AcDbEntity
  8
LAYER0016
 62
   150
100
AcDbLine
 10
1495.501917553104
 20
-545.9790079385238
 30
0.0
 11
1495.501917553104
 21
-551.9790079385238
 31
0.0
  0
LINE
  5
44F
330
1F
100
AcDbEntity
  8
LAYER0016
 62
   150
100
AcDbLine
 10
1482.501917553104
 20
-545.9790079385238
 30
0.0
 11
1482.501917553104
 21
-551.9790079385238
 31
0.0
  0
LINE
  5
450
330
1F
100
AcDbEntity
  8
LAYER0016
 62
   150
100
AcDbLine
 10
1505.501917553104
 20
-489.9790079385238
 30
0.0
 11
1505.501917553104
 21
-535.9790079385238
 31
0.0
  0
LINE
  5
451
330
1F
100
AcDbEntity
  8
LAYER0016
 62
   150
100
AcDbLine
 10
1472.501917553104
 20
-489.9790079385237
 30
0.0
 11
1472.501917553104
 21
-535.9790079385238
 31
0.0
  0
LINE
  5
452
330
1F
100
AcDbEntity
  8
LAYER0016
 62
   150
100
AcDbLine
 10
1508.501917553104
 20
-489.9790079385238
 30
0.0
 11
1469.501917553104
 21
-489.9790079385237
 31
0.0
  0
LINE
  5
453
330
1F
100
AcDbEntity
  8
LAYER0016
 62
   150
100
AcDbLine
 10
1469.501917553104
 20
-489.9790079385237
 30
0.0
 11
1469.501917553104
 21
-473.7732365725836
 31
0.0
  0
LINE
  5
454
330
1F
100
AcDbEntity
  8
LAYER0016
 62
   150
100
AcDbLine
 10
1508.501917553104
 20
-473.7732365725837
 30
0.0
 11
1508.501917553104
 21
-489.9790079385238
 31
0.0
  0
LINE
  5
455
330
1F
100
AcDbEntity
  8
LAYER0016
 62
   150
100
AcDbLine
 10
1490.001917553104
 20
-552.9790079385238
 30
0.0
 11
1490.001917553104
 21
-553.9790079385238
 31
0.0
  0
LINE
  5
456
330
1F
100
AcDbEntity
  8
LAYER0016
 62
   150
100
AcDbLine
 10
1489.501917553104
 20
-551.9790079385238
 30
0.0
 11
1489.501917553104
 21
-552.9790079385238
 31
0.0
  0
LINE
  5
457
330
1F
100
AcDbEntity
  8
LAYER0016
 62
   150
100
AcDbLine
 10
1488.501917553104
 20
-552.9790079385238
 30
0.0
 11
1488.501917553104
 21
-551.9790079385238
 31
0.0
  0
LINE
  5
458
330
1F
100
AcDbEntity
  8
LAYER0016
 62
   150
100
AcDbLine
 10
1490.001917553104
 20
-552.9790079385238
 30
0.0
 11
1488.001917553104
 21
-552.9790079385238
 31
0.0
  0
LINE
  5
459
330
1F
100
AcDbEntity
  8
LAYER0016
 62
   150
100
AcDbLine
 10
1488.001917553104
 20
-553.9790079385238
 30
0.0
 11
1488.001917553104
 21
-552.9790079385238
 31
0.0
  0
LINE
  5
45A
330
1F
100
AcDbEntity
  8
LAYER0016
 62
   150
100
AcDbLine
 10
1490.001917553104
 20
-553.9790079385238
 30
0.0
 11
1488.001917553104
 21
-553.9790079385238
 31
0.0
  0
LINE
  5
45B
330
1F
100
AcDbEntity
  8
LAYER0016
 62
   150
100
AcDbLine
 10
1503.001917553104
 20
-404.9790079385238
 30
0.0
 11
1475.001917553104
 21
-404.9790079385237
 31
0.0
  0
LINE
  5
45C
330
1F
100
AcDbEntity
  8
LAYER0016
 62
   150
100
AcDbLine
 10
1475.001917553104
 20
-429.9790079385237
 30
0.0
 11
1475.001917553104
 21
-404.9790079385237
 31
0.0
  0
LINE
  5
45D
330
1F
100
AcDbEntity
  8
LAYER0016
 62
   150
100
AcDbLine
 10
1503.001917553104
 20
-429.9790079385238
 30
0.0
 11
1475.001917553104
 21
-429.9790079385237
 31
0.0
  0
LINE
  5
45E
330
1F
100
AcDbEntity
  8
LAYER0016
 62
   150
100
AcDbLine
 10
1503.001917553104
 20
-404.9790079385238
 30
0.0
 11
1503.001917553104
 21
-429.9790079385238
 31
0.0
  0
LINE
  5
45F
330
1F
100
AcDbEntity
  8
LAYER0016
 62
   150
100
AcDbLine
 10
1500.501917553104
 20
-429.9790079385238
 30
0.0
 11
1500.501917553104
 21
-433.4790079385238
 31
0.0
  0
LINE
  5
460
330
1F
100
AcDbEntity
  8
LAYER0016
 62
   150
100
AcDbLine
 10
1477.501917553104
 20
-433.4790079385237
 30
0.0
 11
1477.501917553104
 21
-429.9790079385237
 31
0.0
  0
LINE
  5
461
330
1F
100
AcDbEntity
  8
LAYER0016
 62
   150
100
AcDbLine
 10
1508.501917553104
 20
-433.4790079385238
 30
0.0
 11
1469.501917553104
 21
-433.4790079385237
 31
0.0
  0
LINE
  5
462
330
1F
100
AcDbEntity
  8
LAYER0016
 62
   150
100
AcDbLine
 10
1511.001917553104
 20
-421.9790079385238
 30
0.0
 11
1503.001917553104
 21
-421.9790079385238
 31
0.0
  0
LINE
  5
463
330
1F
100
AcDbEntity
  8
LAYER0016
 62
   150
100
AcDbLine
 10
1475.001917553104
 20
-421.9790079385237
 30
0.0
 11
1467.001917553104
 21
-421.9790079385237
 31
0.0
  0
ARC
  5
464
330
1F
100
AcDbEntity
  8
LAYER0016
 62
   150
100
AcDbCircle
 10
1511.001917553104
 20
-424.9790079385238
 30
0.0
 40
3.0
100
AcDbArc
 50
360.0
 51
450.0
  0
ARC
  5
465
330
1F
100
AcDbEntity
  8
LAYER0016
 62
   150
100
AcDbCircle
 10
1467.001917553104
 20
-424.9790079385237
 30
0.0
 40
3.0
100
AcDbArc
 50
89.99999999999999
 51
180.0
  0
LINE
  5
466
330
1F
100
AcDbEntity
  8
LAYER0016
 62
   150
100
AcDbLine
 10
1514.001917553104
 20
-424.9790079385238
 30
0.0
 11
1514.001917553104
 21
-441.9790079385238
 31
0.0
  0
LINE
  5
467
330
1F
100
AcDbEntity
  8
LAYER0016
 62
   150
100
AcDbLine
 10
1464.001917553104
 20
-424.9790079385237
 30
0.0
 11
1464.001917553104
 21
-441.9790079385238
 31
0.0
  0
CIRCLE
  5
468
330
1F
100
AcDbEntity
  8
LAYER0016
 62
   150
100
AcDbCircle
 10
1533.501917553104
 20
-459.4790079385238
 30
0.0
 40
3.0
  0
CIRCLE
  5
469
330
1F
100
AcDbEntity
  8
LAYER0016
 62
   150
100
AcDbCircle
 10
1533.501917553104
 20
-459.4790079385238
 30
0.0
 40
2.0
  0
LINE
  5
46A
330
1F
100
AcDbEntity
  8
LAYER0016
 62
   150
100
AcDbLine
 10
1530.501917553104
 20
-458.9790079385229
 30
0.0
 11
1528.001917553104
 21
-458.9790079385229
 31
0.0
  0
LINE
  5
46B
330
1F
100
AcDbEntity
  8
LAYER0016
 62
   150
100
AcDbLine
 10
1528.001917553104
 20
-458.9790079385229
 30
0.0
 11
1528.001917553104
 21
-475.4790079385238
 31
0.0
  0
LINE
  5
46C
330
1F
100
AcDbEntity
  8
LAYER0016
 62
   150
100
AcDbLine
 10
1530.501917553104
 20
-458.9790079385229
 30
0.0
 11
1530.501917553104
 21
-472.9790079385238
 31
0.0
  0
LINE
  5
46D
330
1F
100
AcDbEntity
  8
LAYER0016
 62
   150
100
AcDbLine
 10
1536.501917553104
 20
-475.4790079385238
 30
0.0
 11
1536.501917553104
 21
-478.4790079385238
 31
0.0
  0
LINE
  5
46E
330
1F
100
AcDbEntity
  8
LAYER0016
 62
   150
100
AcDbLine
 10
1539.501917553104
 20
-437.4790079385238
 30
0.0
 11
1539.501917553104
 21
-447.4790079385238
 31
0.0
  0
LINE
  5
46F
330
1F
100
AcDbEntity
  8
LAYER0016
 62
   150
100
AcDbLine
 10
1536.001917553104
 20
-447.4790079385238
 30
0.0
 11
1536.001917553104
 21
-452.4790079385238
 31
0.0
  0
LINE
  5
470
330
1F
100
AcDbEntity
  8
LAYER0016
 62
   150
100
AcDbLine
 10
1534.001917553104
 20
-452.4790079385238
 30
0.0
 11
1534.001917553104
 21
-456.4790079385238
 31
0.0
  0
LINE
  5
471
330
1F
100
AcDbEntity
  8
LAYER0016
 62
   150
100
AcDbLine
 10
1528.001917553104
 20
-459.4790079385248
 30
0.0
 11
1521.501917553104
 21
-459.4790079385248
 31
0.0
  0
LINE
  5
472
330
1F
100
AcDbEntity
  8
LAYER0016
 62
   150
100
AcDbLine
 10
1521.501917553104
 20
-459.4790079385248
 30
0.0
 11
1521.501917553104
 21
-472.4790079385248
 31
0.0
  0
LINE
  5
473
330
1F
100
AcDbEntity
  8
LAYER0016
 62
   150
100
AcDbLine
 10
1528.001917553104
 20
-472.4790079385248
 30
0.0
 11
1521.501917553104
 21
-472.4790079385248
 31
0.0
  0
LINE
  5
474
330
1F
100
AcDbEntity
  8
LAYER0016
 62
   150
100
AcDbLine
 10
1518.501917553104
 20
-472.9790079385238
 30
0.0
 11
1515.501917553104
 21
-472.9790079385238
 31
0.0
  0
LINE
  5
475
330
1F
100
AcDbEntity
  8
LAYER0016
 62
   150
100
AcDbLine
 10
1518.501917553104
 20
-458.9790079385238
 30
0.0
 11
1518.501917553104
 21
-472.9790079385238
 31
0.0
  0
LINE
  5
476
330
1F
100
AcDbEntity
  8
LAYER0016
 62
   150
100
AcDbLine
 10
1515.501917553104
 20
-458.9790079385238
 30
0.0
 11
1515.501917553104
 21
-472.9790079385238
 31
0.0
  0
LINE
  5
477
330
1F
100
AcDbEntity
  8
LAYER0016
 62
   150
100
AcDbLine
 10
1518.501917553104
 20
-458.9790079385238
 30
0.0
 11
1515.501917553104
 21
-458.9790079385238
 31
0.0
  0
LINE
  5
478
330
1F
100
AcDbEntity
  8
LAYER0016
 62
   150
100
AcDbLine
 10
1515.501917553104
 20
-459.9790079385238
 30
0.0
 11
1509.126529350602
 21
-459.9790079385238
 31
0.0
  0
LINE
  5
479
330
1F
100
AcDbEntity
  8
LAYER0016
 62
   150
100
AcDbLine
 10
1515.501917553104
 20
-471.9790079385238
 30
0.0
 11
1509.126529350602
 21
-471.9790079385238
 31
0.0
  0
LINE
  5
47A
330
1F
100
AcDbEntity
  8
LAYER0016
 62
   150
100
AcDbLine
 10
1459.501917553104
 20
-472.9790079385238
 30
0.0
 11
1462.501917553104
 21
-472.9790079385238
 31
0.0
  0
LINE
  5
47B
330
1F
100
AcDbEntity
  8
LAYER0016
 62
   150
100
AcDbLine
 10
1459.501917553104
 20
-458.9790079385238
 30
0.0
 11
1459.501917553104
 21
-472.9790079385238
 31
0.0
  0
LINE
  5
47C
330
1F
100
AcDbEntity
  8
LAYER0016
 62
   150
100
AcDbLine
 10
1462.501917553104
 20
-458.9790079385238
 30
0.0
 11
1462.501917553104
 21
-472.9790079385238
 31
0.0
  0
LINE
  5
47D
330
1F
100
AcDbEntity
  8
LAYER0016
 62
   150
100
AcDbLine
 10
1459.501917553104
 20
-458.9790079385238
 30
0.0
 11
1462.501917553104
 21
-458.9790079385238
 31
0.0
  0
LINE
  5
47E
330
1F
100
AcDbEntity
  8
LAYER0016
 62
   150
100
AcDbLine
 10
1462.501917553104
 20
-459.9790079385238
 30
0.0
 11
1468.877305755606
 21
-459.9790079385238
 31
0.0
  0
LINE
  5
47F
330
1F
100
AcDbEntity
  8
LAYER0016
 62
   150
100
AcDbLine
 10
1462.501917553104
 20
-471.9790079385238
 30
0.0
 11
1468.877305755606
 21
-471.9790079385238
 31
0.0
  0
LINE
  5
480
330
1F
100
AcDbEntity
  8
LAYER0016
 62
   150
100
AcDbLine
 10
1521.501917553104
 20
-470.9790079385238
 30
0.0
 11
1518.501917553104
 21
-470.9790079385238
 31
0.0
  0
LINE
  5
481
330
1F
100
AcDbEntity
  8
LAYER0016
 62
   150
100
AcDbLine
 10
1521.501917553104
 20
-460.9790079385238
 30
0.0
 11
1518.501917553104
 21
-460.9790079385238
 31
0.0
  0
LINE
  5
482
330
1F
100
AcDbEntity
  8
LAYER0016
 62
   150
100
AcDbLine
 10
1455.501917553104
 20
-459.9790079385239
 30
0.0
 11
1457.001917553104
 21
-459.9790079385239
 31
0.0
  0
LINE
  5
483
330
1F
100
AcDbEntity
  8
LAYER0016
 62
   150
100
AcDbLine
 10
1455.501917553104
 20
-471.9790079385239
 30
0.0
 11
1455.501917553104
 21
-459.9790079385239
 31
0.0
  0
LINE
  5
484
330
1F
100
AcDbEntity
  8
LAYER0016
 62
   150
100
AcDbLine
 10
1457.001917553104
 20
-471.9790079385239
 30
0.0
 11
1457.001917553104
 21
-459.9790079385239
 31
0.0
  0
LINE
  5
485
330
1F
100
AcDbEntity
  8
LAYER0016
 62
   150
100
AcDbLine
 10
1457.001917553104
 20
-471.9790079385239
 30
0.0
 11
1455.501917553104
 21
-471.9790079385239
 31
0.0
  0
LINE
  5
486
330
1F
100
AcDbEntity
  8
LAYER0016
 62
   150
100
AcDbLine
 10
1459.501917553104
 20
-470.9790079385239
 30
0.0
 11
1458.001917553104
 21
-470.9790079385239
 31
0.0
  0
LINE
  5
487
330
1F
100
AcDbEntity
  8
LAYER0016
 62
   150
100
AcDbLine
 10
1458.001917553104
 20
-460.9790079385239
 30
0.0
 11
1459.501917553104
 21
-460.9790079385239
 31
0.0
  0
LINE
  5
488
330
1F
100
AcDbEntity
  8
LAYER0016
 62
   150
100
AcDbLine
 10
1458.001917553104
 20
-470.9790079385239
 30
0.0
 11
1458.001917553104
 21
-460.9790079385239
 31
0.0
  0
LINE
  5
489
330
1F
100
AcDbEntity
  8
LAYER0016
 62
   150
100
AcDbLine
 10
1458.001917553104
 20
-469.9790079385239
 30
0.0
 11
1457.001917553104
 21
-469.9790079385239
 31
0.0
  0
LINE
  5
48A
330
1F
100
AcDbEntity
  8
LAYER0016
 62
   150
100
AcDbLine
 10
1458.001917553104
 20
-461.9790079385239
 30
0.0
 11
1457.001917553104
 21
-461.9790079385239
 31
0.0
  0
LINE
  5
48B
330
1F
100
AcDbEntity
  8
LAYER0016
 62
   150
100
AcDbLine
 10
1464.001917553104
 20
-440.4790079385238
 30
0.0
 11
1514.001917553104
 21
-440.4790079385238
 31
0.0
  0
LINE
  5
48C
330
1F
100
AcDbEntity
  8
LAYER0016
 62
   150
100
AcDbLine
 10
1514.001917553104
 20
-441.9790079385238
 30
0.0
 11
1464.001917553104
 21
-441.9790079385238
 31
0.0
  0
LINE
  5
48D
330
1F
100
AcDbEntity
  8
LAYER0016
 62
   150
100
AcDbLine
 10
1469.501917553104
 20
-458.1847793044638
 30
0.0
 11
1469.501917553104
 21
-441.9790079385238
 31
0.0
  0
LINE
  5
48E
330
1F
100
AcDbEntity
  8
LAYER0016
 62
   150
100
AcDbLine
 10
1469.501917553104
 20
-440.4790079385238
 30
0.0
 11
1469.501917553104
 21
-433.4790079385237
 31
0.0
  0
LINE
  5
48F
330
1F
100
AcDbEntity
  8
LAYER0016
 62
   150
100
AcDbLine
 10
1508.501917553104
 20
-433.4790079385238
 30
0.0
 11
1508.501917553104
 21
-440.4790079385238
 31
0.0
  0
LINE
  5
490
330
1F
100
AcDbEntity
  8
LAYER0016
 62
   150
100
AcDbLine
 10
1508.501917553104
 20
-441.9790079385238
 30
0.0
 11
1508.501917553104
 21
-458.1847793044639
 31
0.0
  0
LINE
  5
491
330
1F
100
AcDbEntity
  8
LAYER0016
 62
   150
100
AcDbLine
 10
1528.001917553104
 20
-475.4790079385238
 30
0.0
 11
1556.001917553104
 21
-475.4790079385238
 31
0.0
  0
LINE
  5
492
330
1F
100
AcDbEntity
  8
LAYER0016
 62
   150
100
AcDbLine
 10
1530.501917553104
 20
-472.9790079385238
 30
0.0
 11
1553.501917553104
 21
-472.9790079385238
 31
0.0
  0
CIRCLE
  5
493
330
1F
100
AcDbEntity
  8
LAYER0016
 62
   150
100
AcDbCircle
 10
1550.501917553104
 20
-459.4790079385238
 30
0.0
 40
3.0
  0
CIRCLE
  5
494
330
1F
100
AcDbEntity
  8
LAYER0016
 62
   150
100
AcDbCircle
 10
1550.501917553104
 20
-459.4790079385238
 30
0.0
 40
2.0
  0
LINE
  5
495
330
1F
100
AcDbEntity
  8
LAYER0016
 62
   150
100
AcDbLine
 10
1536.501917553104
 20
-458.9790079385238
 30
0.0
 11
1547.501917553104
 21
-458.9790079385238
 31
0.0
  0
LINE
  5
496
330
1F
100
AcDbEntity
  8
LAYER0016
 62
   150
100
AcDbLine
 10
1553.501917553104
 20
-458.9790079385229
 30
0.0
 11
1556.001917553104
 21
-458.9790079385229
 31
0.0
  0
LINE
  5
497
330
1F
100
AcDbEntity
  8
LAYER0016
 62
   150
100
AcDbLine
 10
1556.001917553104
 20
-475.4790079385238
 30
0.0
 11
1556.001917553104
 21
-458.9790079385229
 31
0.0
  0
LINE
  5
498
330
1F
100
AcDbEntity
  8
LAYER0016
 62
   150
100
AcDbLine
 10
1553.501917553104
 20
-458.9790079385229
 30
0.0
 11
1553.501917553104
 21
-472.9790079385238
 31
0.0
  0
LINE
  5
499
330
1F
100
AcDbEntity
  8
LAYER0016
 62
   150
100
AcDbLine
 10
1550.501917553104
 20
-456.4790079385238
 30
0.0
 11
1533.501917553104
 21
-456.4790079385238
 31
0.0
  0
LINE
  5
49A
330
1F
100
AcDbEntity
  8
LAYER0016
 62
   150
100
AcDbLine
 10
1547.501917553104
 20
-475.4790079385238
 30
0.0
 11
1547.501917553104
 21
-478.4790079385238
 31
0.0
  0
LINE
  5
49B
330
1F
100
AcDbEntity
  8
LAYER0016
 62
   150
100
AcDbLine
 10
1536.501917553104
 20
-478.4790079385238
 30
0.0
 11
1547.501917553104
 21
-478.4790079385238
 31
0.0
  0
LINE
  5
49C
330
1F
100
AcDbEntity
  8
LAYER0016
 62
   150
100
AcDbLine
 10
1556.001917553104
 20
-459.4790079385238
 30
0.0
 11
1564.001917553104
 21
-459.4790079385238
 31
0.0
  0
LINE
  5
49D
330
1F
100
AcDbEntity
  8
LAYER0016
 62
   150
100
AcDbLine
 10
1564.001917553104
 20
-459.4790079385238
 30
0.0
 11
1564.001917553104
 21
-472.4790079385238
 31
0.0
  0
LINE
  5
49E
330
1F
100
AcDbEntity
  8
LAYER0016
 62
   150
100
AcDbLine
 10
1556.001917553104
 20
-472.4790079385238
 30
0.0
 11
1564.001917553104
 21
-472.4790079385238
 31
0.0
  0
LINE
  5
49F
330
1F
100
AcDbEntity
  8
LAYER0016
 62
   150
100
AcDbLine
 10
1566.501917553104
 20
-459.9790079385238
 30
0.0
 11
1566.501917553104
 21
-471.9790079385238
 31
0.0
  0
LINE
  5
4A0
330
1F
100
AcDbEntity
  8
LAYER0016
 62
   150
100
AcDbLine
 10
1564.001917553104
 20
-460.9790079385238
 30
0.0
 11
1565.501917553104
 21
-460.9790079385238
 31
0.0
  0
LINE
  5
4A1
330
1F
100
AcDbEntity
  8
LAYER0016
 62
   150
100
AcDbLine
 10
1565.501917553104
 20
-470.9790079385238
 30
0.0
 11
1564.001917553104
 21
-470.9790079385238
 31
0.0
  0
LINE
  5
4A2
330
1F
100
AcDbEntity
  8
LAYER0016
 62
   150
100
AcDbLine
 10
1565.501917553104
 20
-460.9790079385238
 30
0.0
 11
1565.501917553104
 21
-470.9790079385238
 31
0.0
  0
LINE
  5
4A3
330
1F
100
AcDbEntity
  8
LAYER0016
 62
   150
100
AcDbLine
 10
1565.501917553104
 20
-461.9790079385238
 30
0.0
 11
1566.501917553104
 21
-461.9790079385238
 31
0.0
  0
LINE
  5
4A4
330
1F
100
AcDbEntity
  8
LAYER0016
 62
   150
100
AcDbLine
 10
1565.501917553104
 20
-469.9790079385238
 30
0.0
 11
1566.501917553104
 21
-469.9790079385238
 31
0.0
  0
LINE
  5
4A5
330
1F
100
AcDbEntity
  8
LAYER0016
 62
   150
100
AcDbLine
 10
1539.501917553104
 20
-437.4790079385238
 30
0.0
 11
1544.501917553104
 21
-437.4790079385238
 31
0.0
  0
LINE
  5
4A6
330
1F
100
AcDbEntity
  8
LAYER0016
 62
   150
100
AcDbLine
 10
1544.501917553104
 20
-437.4790079385238
 30
0.0
 11
1544.501917553104
 21
-447.4790079385238
 31
0.0
  0
LINE
  5
4A7
330
1F
100
AcDbEntity
  8
LAYER0016
 62
   150
100
AcDbLine
 10
1548.001917553104
 20
-447.4790079385238
 30
0.0
 11
1548.001917553104
 21
-452.4790079385238
 31
0.0
  0
LINE
  5
4A8
330
1F
100
AcDbEntity
  8
LAYER0016
 62
   150
100
AcDbLine
 10
1536.001917553104
 20
-447.4790079385238
 30
0.0
 11
1548.001917553104
 21
-447.4790079385238
 31
0.0
  0
LINE
  5
4A9
330
1F
100
AcDbEntity
  8
LAYER0016
 62
   150
100
AcDbLine
 10
1534.001917553104
 20
-452.4790079385238
 30
0.0
 11
1550.001917553104
 21
-452.4790079385238
 31
0.0
  0
LINE
  5
4AA
330
1F
100
AcDbEntity
  8
LAYER0016
 62
   150
100
AcDbLine
 10
1550.001917553104
 20
-452.4790079385238
 30
0.0
 11
1550.001917553104
 21
-456.4790079385238
 31
0.0
  0
LINE
  5
4AB
330
1F
100
AcDbEntity
  8
LAYER0016
 62
   150
100
AcDbLine
 10
1568.001917553104
 20
-471.9790079385238
 30
0.0
 11
1566.501917553104
 21
-471.9790079385238
 31
0.0
  0
LINE
  5
4AC
330
1F
100
AcDbEntity
  8
LAYER0016
 62
   150
100
AcDbLine
 10
1568.001917553104
 20
-459.9790079385238
 30
0.0
 11
1568.001917553104
 21
-471.9790079385238
 31
0.0
  0
LINE
  5
4AD
330
1F
100
AcDbEntity
  8
LAYER0016
 62
   150
100
AcDbLine
 10
1566.501917553104
 20
-459.9790079385238
 30
0.0
 11
1568.001917553104
 21
-459.9790079385238
 31
0.0
  0
LINE
  5
4AE
330
1F
100
AcDbEntity
  8
LAYER0016
  6
CENTER
 62
     4
100
AcDbLine
 10
1542.001917553104
 20
-434.3213066579596
 30
0.0
 11
1542.001917553104
 21
-481.4030181718559
 31
0.0
  0
VIEWPORT
  5
2F
330
1B
100
AcDbEntity
 67
     1
  8
0
100
AcDbViewport
 10
91.733302432453
 20
-78.06318956870632
 30
0.0
 40
11383.61169072387
 41
8264.852557673019
 68
     1
 69
     1
1001
ACAD
1000
MVIEW
1002
{
1070
    16
1010
0.0
1020
0.0
1030
0.0
1010
0.0
1020
0.0
1030
1.0
1040
0.0
1040
8264.852557673019
1040
91.733302432453
1040
-78.06318956870632
1040
50.0
1040
0.0
1040
0.0
1070
     0
1070
   100
1070
     0
1070
     1
1070
     0
1070
     0
1070
     0
1070
     0
1040
0.0
1040
0.0
1040
0.0
1040
0.5
1040
0.5
1040
0.0
1040
0.0
1070
     0
1002
{
1002
}
1002
}
  0
ENDSEC
  0
SECTION
  2
OBJECTS
  0
DICTIONARY
  5
C
330
0
100
AcDbDictionary
  3
ACAD_GROUP
350
D
  3
ACAD_LAYOUT
350
1A
  3
ACAD_MLINESTYLE
350
17
  3
ACAD_PLOTSETTINGS
350
19
  3
ACDBHEADERROUNDTRIPXREC
350
4AF
  0
DICTIONARY
  5
D
102
{ACAD_REACTORS
330
C
102
}
330
C
100
AcDbDictionary
  0
DICTIONARY
  5
1A
102
{ACAD_REACTORS
330
C
102
}
330
C
100
AcDbDictionary
  0
DICTIONARY
  5
17
102
{ACAD_REACTORS
330
C
102
}
330
C
100
AcDbDictionary
  3
STANDARD
350
18
  0
DICTIONARY
  5
19
102
{ACAD_REACTORS
330
C
102
}
330
C
100
AcDbDictionary
  0
DICTIONARY
  5
4AF
102
{ACAD_REACTORS
330
C
102
}
330
C
100
AcDbDictionary
  3
CEPSNTYPE
350
4B8
  3
DIMSTYLEDATA
350
4CE
  3
FINGERPRINTGUID
350
4B9
  3
HYPERLINKBASE
350
4B2
  3
INSUNITS
350
4B7
  3
LAYOUTDICT
350
4B4
  3
LWETCUNION
350
4B6
  3
PLOTSETDICT
350
4B5
  3
PSVPSCALE
350
4BB
  3
PUCSBASE
350
4BE
  3
PUCSORGBACK
350
4C4
  3
PUCSORGBOTTOM
350
4C0
  3
PUCSORGFRONT
350
4C3
  3
PUCSORGLEFT
350
4C1
  3
PUCSORGRIGHT
350
4C2
  3
PUCSORGTOP
350
4BF
  3
PUCSORTHOREF
350
4BC
  3
PUCSORTHOVIEW
350
4BD
  3
STYLESHEET
350
4B3
  3
TSTACKALIGN
350
4B0
  3
TSTACKSIZE
350
4B1
  3
UCSBASE
350
4C7
  3
UCSORGBACK
350
4CD
  3
UCSORGBOTTOM
350
4C9
  3
UCSORGFRONT
350
4CC
  3
UCSORGLEFT
350
4CA
  3
UCSORGRIGHT
350
4CB
  3
UCSORGTOP
350
4C8
  3
UCSORTHOREF
350
4C5
  3
UCSORTHOVIEW
350
4C6
  3
VERSIONGUID
350
4BA
  0
MLINESTYLE
  5
18
102
{ACAD_REACTORS
330
17
102
}
330
17
100
AcDbMlineStyle
  2
Standard
 70
     0
  3

 62
   256
 51
90.0
 52
90.0
 71
     2
 49
0.5
 62
   256
  6
BYLAYER
 49
-0.5
 62
   256
  6
BYLAYER
  0
XRECORD
  5
4B8
102
{ACAD_REACTORS
330
4AF
102
}
330
4AF
100
AcDbXrecord
 90
        0
  0
XRECORD
  5
4CE
102
{ACAD_REACTORS
330
4AF
102
}
330
4AF
100
AcDbXrecord
1000
DSTYLE
1002
{
1070
   171
 70
     2
1070
   143
 40
25.4
1070
   274
 70
     2
1070
    41
 40
30.0
1070
   141
 40
0.09
1070
   271
 70
     4
1070
    43
 40
0.38
1070
    44
 40
0.18
1070
   278
 70
    46
1070
    42
 40
0.0625
1070
   147
 40
0.09
1070
    77
 70
     3
1070
   272
 70
     4
1070
    73
 70
     1
1070
   172
 70
     0
1070
    74
 70
     1
1070
   283
 70
     1
1070
   340
340
11
1070
   140
 40
0.18
1070
   284
 70
     0
1070
    78
 70
     0
1002
}
  0
XRECORD
  5
4B9
102
{ACAD_REACTORS
330
4AF
102
}
330
4AF
100
AcDbXrecord
  1
{63FDDFDD-9B48-44C0-8A3A-D6FE397BD057}
  0
XRECORD
  5
4B2
102
{ACAD_REACTORS
330
4AF
102
}
330
4AF
100
AcDbXrecord
  1

  0
XRECORD
  5
4B7
102
{ACAD_REACTORS
330
4AF
102
}
330
4AF
100
AcDbXrecord
 90
        4
  0
XRECORD
  5
4B4
102
{ACAD_REACTORS
330
4AF
102
}
330
4AF
100
AcDbXrecord
340
1A
  0
XRECORD
  5
4B6
102
{ACAD_REACTORS
330
4AF
102
}
330
4AF
100
AcDbXrecord
 90
    10781
  0
XRECORD
  5
4B5
102
{ACAD_REACTORS
330
4AF
102
}
330
4AF
100
AcDbXrecord
340
19
  0
XRECORD
  5
4BB
102
{ACAD_REACTORS
330
4AF
102
}
330
4AF
100
AcDbXrecord
 40
0.0
  0
XRECORD
  5
4BE
102
{ACAD_REACTORS
330
4AF
102
}
330
4AF
100
AcDbXrecord
340
0
  0
XRECORD
  5
4C4
102
{ACAD_REACTORS
330
4AF
102
}
330
4AF
100
AcDbXrecord
 10
0.0
 20
0.0
 30
0.0
  0
XRECORD
  5
4C0
102
{ACAD_REACTORS
330
4AF
102
}
330
4AF
100
AcDbXrecord
 10
0.0
 20
0.0
 30
0.0
  0
XRECORD
  5
4C3
102
{ACAD_REACTORS
330
4AF
102
}
330
4AF
100
AcDbXrecord
 10
0.0
 20
0.0
 30
0.0
  0
XRECORD
  5
4C1
102
{ACAD_REACTORS
330
4AF
102
}
330
4AF
100
AcDbXrecord
 10
0.0
 20
0.0
 30
0.0
  0
XRECORD
  5
4C2
102
{ACAD_REACTORS
330
4AF
102
}
330
4AF
100
AcDbXrecord
 10
0.0
 20
0.0
 30
0.0
  0
XRECORD
  5
4BF
102
{ACAD_REACTORS
330
4AF
102
}
330
4AF
100
AcDbXrecord
 10
0.0
 20
0.0
 30
0.0
  0
XRECORD
  5
4BC
102
{ACAD_REACTORS
330
4AF
102
}
330
4AF
100
AcDbXrecord
340
0
  0
XRECORD
  5
4BD
102
{ACAD_REACTORS
330
4AF
102
}
330
4AF
100
AcDbXrecord
 70
     0
  0
XRECORD
  5
4B3
102
{ACAD_REACTORS
330
4AF
102
}
330
4AF
100
AcDbXrecord
  1

  0
XRECORD
  5
4B0
102
{ACAD_REACTORS
330
4AF
102
}
330
4AF
100
AcDbXrecord
 90
        1
  0
XRECORD
  5
4B1
102
{ACAD_REACTORS
330
4AF
102
}
330
4AF
100
AcDbXrecord
 90
       70
  0
XRECORD
  5
4C7
102
{ACAD_REACTORS
330
4AF
102
}
330
4AF
100
AcDbXrecord
340
0
  0
XRECORD
  5
4CD
102
{ACAD_REACTORS
330
4AF
102
}
330
4AF
100
AcDbXrecord
 10
0.0
 20
0.0
 30
0.0
  0
XRECORD
  5
4C9
102
{ACAD_REACTORS
330
4AF
102
}
330
4AF
100
AcDbXrecord
 10
0.0
 20
0.0
 30
0.0
  0
XRECORD
  5
4CC
102
{ACAD_REACTORS
330
4AF
102
}
330
4AF
100
AcDbXrecord
 10
0.0
 20
0.0
 30
0.0
  0
XRECORD
  5
4CA
102
{ACAD_REACTORS
330
4AF
102
}
330
4AF
100
AcDbXrecord
 10
0.0
 20
0.0
 30
0.0
  0
XRECORD
  5
4CB
102
{ACAD_REACTORS
330
4AF
102
}
330
4AF
100
AcDbXrecord
 10
0.0
 20
0.0
 30
0.0
  0
XRECORD
  5
4C8
102
{ACAD_REACTORS
330
4AF
102
}
330
4AF
100
AcDbXrecord
 10
0.0
 20
0.0
 30
0.0
  0
XRECORD
  5
4C5
102
{ACAD_REACTORS
330
4AF
102
}
330
4AF
100
AcDbXrecord
340
0
  0
XRECORD
  5
4C6
102
{ACAD_REACTORS
330
4AF
102
}
330
4AF
100
AcDbXrecord
 70
     0
  0
XRECORD
  5
4BA
102
{ACAD_REACTORS
330
4AF
102
}
330
4AF
100
AcDbXrecord
  1
{FAEB1C32-E019-11D5-929B-00C0DF256EC4}
  0
ENDSEC
  0
EOF
