  0
SECTION
  2
HEADER
  9
$ACADVER
  1
AC1014
  9
$ACADMAINTVER
 70
     9
  9
$DWGCODEPAGE
  3
ANSI_932
  9
$INSBASE
 10
0.0
 20
0.0
 30
0.0
  9
$EXTMIN
 10
-5727.735189943082
 20
-3981.924658646094
 30
0.0
  9
$EXTMAX
 10
5927.498668586543
 20
3866.511516634338
 30
0.0
  9
$LIMMIN
 10
-2520.0
 20
-1782.0
  9
$LIMMAX
 10
2520.0
 20
1782.0
  9
$ORTHOMODE
 70
     0
  9
$REGENMODE
 70
     1
  9
$FILLMODE
 70
     1
  9
$QTEXTMODE
 70
     0
  9
$MIRRTEXT
 70
     1
  9
$DRAGMODE
 70
     2
  9
$LTSCALE
 40
12.0
  9
$OSMODE
 70
    37
  9
$ATTMODE
 70
     1
  9
$TEXTSIZE
 40
0.2
  9
$TRACEWID
 40
0.05
  9
$TEXTSTYLE
  7
STANDARD
  9
$CLAYER
  8
0
  9
$CELTYPE
  6
BYLAYER
  9
$CECOLOR
 62
   256
  9
$CELTSCALE
 40
1.0
  9
$DELOBJ
 70
     1
  9
$DISPSILH
 70
     0
  9
$DIMSCALE
 40
1.0
  9
$DIMASZ
 40
30.0
  9
$DIMEXO
 40
0.0625
  9
$DIMDLI
 40
0.38
  9
$DIMRND
 40
0.0
  9
$DIMDLE
 40
0.0
  9
$DIMEXE
 40
0.18
  9
$DIMTP
 40
0.0
  9
$DIMTM
 40
0.0
  9
$DIMTXT
 40
0.18
  9
$DIMCEN
 40
0.09
  9
$DIMTSZ
 40
0.0
  9
$DIMTOL
 70
     0
  9
$DIMLIM
 70
     0
  9
$DIMTIH
 70
     1
  9
$DIMTOH
 70
     1
  9
$DIMSE1
 70
     0
  9
$DIMSE2
 70
     0
  9
$DIMTAD
 70
     3
  9
$DIMZIN
 70
     0
  9
$DIMBLK
  1

  9
$DIMASO
 70
     1
  9
$DIMSHO
 70
     1
  9
$DIMPOST
  1

  9
$DIMAPOST
  1

  9
$DIMALT
 70
     0
  9
$DIMALTD
 70
     2
  9
$DIMALTF
 40
25.4
  9
$DIMLFAC
 40
1.0
  9
$DIMTOFL
 70
     0
  9
$DIMTVP
 40
0.0
  9
$DIMTIX
 70
     0
  9
$DIMSOXD
 70
     0
  9
$DIMSAH
 70
     0
  9
$DIMBLK1
  1

  9
$DIMBLK2
  1

  9
$DIMSTYLE
  2
STANDARD
  9
$DIMCLRD
 70
     0
  9
$DIMCLRE
 70
     0
  9
$DIMCLRT
 70
     0
  9
$DIMTFAC
 40
1.0
  9
$DIMGAP
 40
0.09
  9
$DIMJUST
 70
     0
  9
$DIMSD1
 70
     0
  9
$DIMSD2
 70
     0
  9
$DIMTOLJ
 70
     1
  9
$DIMTZIN
 70
     0
  9
$DIMALTZ
 70
     0
  9
$DIMALTTZ
 70
     0
  9
$DIMFIT
 70
     3
  9
$DIMUPT
 70
     0
  9
$DIMUNIT
 70
     2
  9
$DIMDEC
 70
     4
  9
$DIMTDEC
 70
     4
  9
$DIMALTU
 70
     2
  9
$DIMALTTD
 70
     2
  9
$DIMTXSTY
  7
STANDARD
  9
$DIMAUNIT
 70
     0
  9
$LUNITS
 70
     2
  9
$LUPREC
 70
     4
  9
$SKETCHINC
 40
0.1
  9
$FILLETRAD
 40
0.5
  9
$AUNITS
 70
     0
  9
$AUPREC
 70
     0
  9
$MENU
  1
.
  9
$ELEVATION
 40
0.0
  9
$PELEVATION
 40
0.0
  9
$THICKNESS
 40
0.0
  9
$LIMCHECK
 70
     0
  9
$CHAMFERA
 40
0.5
  9
$CHAMFERB
 40
0.5
  9
$CHAMFERC
 40
1.0
  9
$CHAMFERD
 40
0.0
  9
$SKPOLY
 70
     0
  9
$TDCREATE
 40
2456475.656977176
  9
$TDUPDATE
 40
2456475.656977187
  9
$TDINDWG
 40
0.0000000116
  9
$TDUSRTIMER
 40
0.0000000116
  9
$USRTIMER
 70
     1
  9
$ANGBASE
 50
0.0
  9
$ANGDIR
 70
     0
  9
$PDMODE
 70
     0
  9
$PDSIZE
 40
1.0
  9
$PLINEWID
 40
0.0
  9
$COORDS
 70
     1
  9
$SPLFRAME
 70
     0
  9
$SPLINETYPE
 70
     6
  9
$SPLINESEGS
 70
     8
  9
$ATTDIA
 70
     0
  9
$ATTREQ
 70
     1
  9
$HANDLING
 70
     1
  9
$HANDSEED
  5
4CE
  9
$SURFTAB1
 70
     6
  9
$SURFTAB2
 70
     6
  9
$SURFTYPE
 70
     6
  9
$SURFU
 70
     6
  9
$SURFV
 70
     6
  9
$UCSNAME
  2

  9
$UCSORG
 10
0.0
 20
0.0
 30
0.0
  9
$UCSXDIR
 10
1.0
 20
0.0
 30
0.0
  9
$UCSYDIR
 10
0.0
 20
1.0
 30
0.0
  9
$PUCSNAME
  2

  9
$PUCSORG
 10
0.0
 20
0.0
 30
0.0
  9
$PUCSXDIR
 10
1.0
 20
0.0
 30
0.0
  9
$PUCSYDIR
 10
0.0
 20
1.0
 30
0.0
  9
$USERI1
 70
     0
  9
$USERI2
 70
     0
  9
$USERI3
 70
     0
  9
$USERI4
 70
     0
  9
$USERI5
 70
     0
  9
$USERR1
 40
0.0
  9
$USERR2
 40
0.0
  9
$USERR3
 40
0.0
  9
$USERR4
 40
0.0
  9
$USERR5
 40
0.0
  9
$WORLDVIEW
 70
     1
  9
$SHADEDGE
 70
     3
  9
$SHADEDIF
 70
    70
  9
$TILEMODE
 70
     1
  9
$MAXACTVP
 70
    64
  9
$PINSBASE
 10
0.0
 20
0.0
 30
0.0
  9
$PLIMCHECK
 70
     0
  9
$PEXTMIN
 10
1.000000000000000E+20
 20
1.000000000000000E+20
 30
1.000000000000000E+20
  9
$PEXTMAX
 10
-1.000000000000000E+20
 20
-1.000000000000000E+20
 30
-1.000000000000000E+20
  9
$PLIMMIN
 10
0.0
 20
0.0
  9
$PLIMMAX
 10
12.0
 20
9.0
  9
$UNITMODE
 70
     0
  9
$VISRETAIN
 70
     0
  9
$PLINEGEN
 70
     1
  9
$PSLTSCALE
 70
     0
  9
$TREEDEPTH
 70
  3020
  9
$PICKSTYLE
 70
     1
  9
$CMLSTYLE
  2
STANDARD
  9
$CMLJUST
 70
     0
  9
$CMLSCALE
 40
1.0
  9
$PROXYGRAPHICS
 70
     0
  9
$MEASUREMENT
 70
     1
  0
ENDSEC
  0
SECTION
  2
CLASSES
  0
CLASS
  1
ACDBDICTIONARYWDFLT
  2
AcDbDictionaryWithDefault
  3
ObjectDBX Classes
 90
        0
280
     0
281
     0
  0
CLASS
  1
XRECORD
  2
AcDbXrecord
  3
AutoCAD 2000
 90
        0
280
     0
281
     0
  0
CLASS
  1
LWPOLYLINE
  2
AcDbPolyline
  3
AutoCAD 2000
 90
        0
280
     0
281
     1
  0
CLASS
  1
HATCH
  2
AcDbHatch
  3
AutoCAD 2000
 90
        0
280
     0
281
     1
  0
CLASS
  1
ACDBPLACEHOLDER
  2
AcDbPlaceHolder
  3
ObjectDBX Classes
 90
        0
280
     0
281
     0
  0
CLASS
  1
LAYOUT
  2
AcDbLayout
  3
ObjectDBX Classes
 90
        0
280
     0
281
     0
  0
ENDSEC
  0
SECTION
  2
TABLES
  0
TABLE
  2
VPORT
  5
8
330
0
100
AcDbSymbolTable
 70
     1
  0
VPORT
  5
29
330
8
100
AcDbSymbolTableRecord
100
AcDbViewportTableRecord
  2
*ACTIVE
 70
     0
 10
0.0
 20
0.0
 11
1.0
 21
1.0
 12
0.0
 22
0.0
 13
0.0
 23
0.0
 14
0.5
 24
0.5
 15
0.5
 25
0.5
 16
0.0
 26
0.0
 36
1.0
 17
99.88173932173061
 27
57.98391629152047
 37
0.0
 40
2667.902515212636
 41
1.485353939772508
 42
50.0
 43
0.0
 44
0.0
 50
0.0
 51
0.0
 71
     0
 72
  1000
 73
     1
 74
     1
 75
     0
 76
     0
 77
     0
 78
     0
  0
ENDTAB
  0
TABLE
  2
LTYPE
  5
5
330
0
100
AcDbSymbolTable
 70
    28
  0
LTYPE
  5
14
330
5
100
AcDbSymbolTableRecord
100
AcDbLinetypeTableRecord
  2
BYBLOCK
 70
     0
  3

 72
    65
 73
     0
 40
0.0
  0
LTYPE
  5
15
330
5
100
AcDbSymbolTableRecord
100
AcDbLinetypeTableRecord
  2
BYLAYER
 70
     0
  3

 72
    65
 73
     0
 40
0.0
  0
LTYPE
  5
16
330
5
100
AcDbSymbolTableRecord
100
AcDbLinetypeTableRecord
  2
CONTINUOUS
 70
     0
  3
Solid line
 72
    65
 73
     0
 40
0.0
  0
LTYPE
  5
30
330
5
100
AcDbSymbolTableRecord
100
AcDbLinetypeTableRecord
  2
HIDDENX2
 70
     0
  3
CADPAC LINETYPE
 72
    65
 73
     2
 40
5.957873620862604
 49
4.468405215646953
 74
     0
 49
-1.489468405215651
 74
     0
  0
LTYPE
  5
31
330
5
100
AcDbSymbolTableRecord
100
AcDbLinetypeTableRecord
  2
HIDDEN
 70
     0
  3
CADPAC LINETYPE
 72
    65
 73
     2
 40
4.468405215646953
 49
2.978936810431302
 74
     0
 49
-1.489468405215651
 74
     0
  0
LTYPE
  5
32
330
5
100
AcDbSymbolTableRecord
100
AcDbLinetypeTableRecord
  2
HIDDEN2
 70
     0
  3
CADPAC LINETYPE
 72
    65
 73
     2
 40
3.723671013039128
 49
2.234202607823477
 74
     0
 49
-1.489468405215651
 74
     0
  0
LTYPE
  5
33
330
5
100
AcDbSymbolTableRecord
100
AcDbLinetypeTableRecord
  2
DASHED
 70
     0
  3
CADPAC LINETYPE
 72
    65
 73
     2
 40
4.170511534603861
 49
2.978936810431302
 74
     0
 49
-1.191574724172559
 74
     0
  0
LTYPE
  5
34
330
5
100
AcDbSymbolTableRecord
100
AcDbLinetypeTableRecord
  2
DASHED2
 70
     0
  3
CADPAC LINETYPE
 72
    65
 73
     2
 40
2.68104312938821
 49
1.787362086258781
 74
     0
 49
-0.8936810431294285
 74
     0
  0
LTYPE
  5
35
330
5
100
AcDbSymbolTableRecord
100
AcDbLinetypeTableRecord
  2
DASHEDX2
 70
     0
  3
CADPAC LINETYPE
 72
    65
 73
     2
 40
7.149448345035163
 49
5.957873620862604
 74
     0
 49
-1.191574724172559
 74
     0
  0
LTYPE
  5
36
330
5
100
AcDbSymbolTableRecord
100
AcDbLinetypeTableRecord
  2
DOTX2
 70
     0
  3
CADPAC LINETYPE
 72
    65
 73
     2
 40
2.606569709127389
 49
0.0
 74
     0
 49
-2.606569709127389
 74
     0
  0
LTYPE
  5
37
330
5
100
AcDbSymbolTableRecord
100
AcDbLinetypeTableRecord
  2
DOT
 70
     0
  3
CADPAC LINETYPE
 72
    65
 73
     2
 40
2.085255767301911
 49
0.0
 74
     0
 49
-2.085255767301911
 74
     0
  0
LTYPE
  5
38
330
5
100
AcDbSymbolTableRecord
100
AcDbLinetypeTableRecord
  2
DOT2
 70
     0
  3
CADPAC LINETYPE
 72
    65
 73
     2
 40
1.563941825476434
 49
0.0
 74
     0
 49
-1.563941825476434
 74
     0
  0
LTYPE
  5
39
330
5
100
AcDbSymbolTableRecord
100
AcDbLinetypeTableRecord
  2
CENTERX2
 70
     0
  3
CADPAC LINETYPE
 72
    65
 73
     4
 40
8.936810431293907
 49
3.723671013039128
 74
     0
 49
-1.861835506519564
 74
     0
 49
1.489468405215651
 74
     0
 49
-1.861835506519564
 74
     0
  0
LTYPE
  5
3A
330
5
100
AcDbSymbolTableRecord
100
AcDbLinetypeTableRecord
  2
CENTER
 70
     0
  3
CADPAC LINETYPE
 72
    65
 73
     4
 40
6.851554663991995
 49
2.978936810431302
 74
     0
 49
-1.489468405215651
 74
     0
 49
0.8936810431293906
 74
     0
 49
-1.489468405215651
 74
     0
  0
LTYPE
  5
3B
330
5
100
AcDbSymbolTableRecord
100
AcDbLinetypeTableRecord
  2
CENTER2
 70
     0
  3
CADPAC LINETYPE
 72
    65
 73
     4
 40
4.766298896690084
 49
2.234202607823477
 74
     0
 49
-1.117101303911738
 74
     0
 49
0.2978936810431302
 74
     0
 49
-1.117101303911738
 74
     0
  0
LTYPE
  5
3C
330
5
100
AcDbSymbolTableRecord
100
AcDbLinetypeTableRecord
  2
DASHDOTX2
 70
     0
  3
CADPAC LINETYPE
 72
    65
 73
     4
 40
14.29889669007025
 49
7.149448345035125
 74
     0
 49
-2.383149448345042
 74
     0
 49
2.383149448345042
 74
     0
 49
-2.383149448345042
 74
     0
  0
LTYPE
  5
3D
330
5
100
AcDbSymbolTableRecord
100
AcDbLinetypeTableRecord
  2
DASHDOT
 70
     0
  3
CADPAC LINETYPE
 72
    65
 73
     4
 40
7.149448345035239
 49
3.574724172517563
 74
     0
 49
-1.191574724172559
 74
     0
 49
1.191574724172559
 74
     0
 49
-1.191574724172559
 74
     0
  0
LTYPE
  5
3E
330
5
100
AcDbSymbolTableRecord
100
AcDbLinetypeTableRecord
  2
DASHDOT2
 70
     0
  3
CADPAC LINETYPE
 72
    65
 73
     4
 40
4.587562688064266
 49
2.681043129388172
 74
     0
 49
-0.8936810431294191
 74
     0
 49
0.1191574724172559
 74
     0
 49
-0.8936810431294191
 74
     0
  0
LTYPE
  5
3F
330
5
100
AcDbSymbolTableRecord
100
AcDbLinetypeTableRecord
  2
DIVIDEX2
 70
     0
  3
CADPAC LINETYPE
 72
    65
 73
     6
 40
19.06519558676033
 49
7.149448345035125
 74
     0
 49
-2.383149448345042
 74
     0
 49
2.383149448345042
 74
     0
 49
-2.383149448345042
 74
     0
 49
2.383149448345042
 74
     0
 49
-2.383149448345042
 74
     0
  0
LTYPE
  5
40
330
5
100
AcDbSymbolTableRecord
100
AcDbLinetypeTableRecord
  2
DIVIDE
 70
     0
  3
CADPAC LINETYPE
 72
    65
 73
     6
 40
9.532597793380356
 49
3.574724172517563
 74
     0
 49
-1.191574724172559
 74
     0
 49
1.191574724172559
 74
     0
 49
-1.191574724172559
 74
     0
 49
1.191574724172559
 74
     0
 49
-1.191574724172559
 74
     0
  0
LTYPE
  5
41
330
5
100
AcDbSymbolTableRecord
100
AcDbLinetypeTableRecord
  2
DIVIDE2
 70
     0
  3
CADPAC LINETYPE
 72
    65
 73
     6
 40
7.149448345035268
 49
2.681043129388172
 74
     0
 49
-0.8936810431294191
 74
     0
 49
0.8936810431294191
 74
     0
 49
-0.8936810431294191
 74
     0
 49
0.8936810431294191
 74
     0
 49
-0.8936810431294191
 74
     0
  0
LTYPE
  5
42
330
5
100
AcDbSymbolTableRecord
100
AcDbLinetypeTableRecord
  2
BORDERX2
 70
     0
  3
CADPAC LINETYPE
 72
    65
 73
     6
 40
13.03284854563695
 49
3.723671013039128
 74
     0
 49
-1.861835506519564
 74
     0
 49
3.723671013039128
 74
     0
 49
-1.861835506519564
 74
     0
 49
0.0
 74
     0
 49
-1.861835506519564
 74
     0
  0
LTYPE
  5
43
330
5
100
AcDbSymbolTableRecord
100
AcDbLinetypeTableRecord
  2
BORDER
 70
     0
  3
CADPAC LINETYPE
 72
    65
 73
     6
 40
10.42627883650956
 49
2.978936810431302
 74
     0
 49
-1.489468405215651
 74
     0
 49
2.978936810431302
 74
     0
 49
-1.489468405215651
 74
     0
 49
0.0
 74
     0
 49
-1.489468405215651
 74
     0
  0
LTYPE
  5
44
330
5
100
AcDbSymbolTableRecord
100
AcDbLinetypeTableRecord
  2
BORDER2
 70
     0
  3
CADPAC LINETYPE
 72
    65
 73
     6
 40
7.745235707121499
 49
2.383149448345042
 74
     0
 49
-1.489468405215689
 74
     0
 49
0.8936810431294285
 74
     0
 49
-1.489468405215689
 74
     0
 49
0.0
 74
     0
 49
-1.489468405215651
 74
     0
  0
LTYPE
  5
45
330
5
100
AcDbSymbolTableRecord
100
AcDbLinetypeTableRecord
  2
PHANTOMX2
 70
     0
  3
CADPAC LINETYPE
 72
    65
 73
     6
 40
11.17101303911738
 49
3.723671013039128
 74
     0
 49
-1.489468405215651
 74
     0
 49
1.489468405215651
 74
     0
 49
-1.489468405215651
 74
     0
 49
1.489468405215651
 74
     0
 49
-1.489468405215651
 74
     0
  0
LTYPE
  5
46
330
5
100
AcDbSymbolTableRecord
100
AcDbLinetypeTableRecord
  2
PHANTOM
 70
     0
  3
CADPAC LINETYPE
 72
    65
 73
     6
 40
9.234704112337036
 49
2.978936810431302
 74
     0
 49
-1.489468405215651
 74
     0
 49
0.8936810431293906
 74
     0
 49
-1.489468405215651
 74
     0
 49
0.8936810431293906
 74
     0
 49
-1.489468405215651
 74
     0
  0
LTYPE
  5
47
330
5
100
AcDbSymbolTableRecord
100
AcDbLinetypeTableRecord
  2
PHANTOM2
 70
     0
  3
CADPAC LINETYPE
 72
    65
 73
     6
 40
7.89418254764295
 49
2.234202607823477
 74
     0
 49
-1.489468405215651
 74
     0
 49
0.5957873620862605
 74
     0
 49
-1.489468405215651
 74
     0
 49
0.5957873620862605
 74
     0
 49
-1.489468405215651
 74
     0
  0
LTYPE
  5
48
330
5
100
AcDbSymbolTableRecord
100
AcDbLinetypeTableRecord
  2
ACAD_ISO06W100
 70
     0
  3
CADPAC LINETYPE
 72
    65
 73
     8
 40
15.78836509528617
 49
7.149448345035125
 74
     0
 49
-1.489468405215689
 74
     0
 49
0.8936810431294285
 74
     0
 49
-1.489468405215689
 74
     0
 49
0.8936810431294285
 74
     0
 49
-1.489468405215689
 74
     0
 49
0.8936810431294285
 74
     0
 49
-1.489468405215689
 74
     0
  0
LTYPE
  5
49
330
5
100
AcDbSymbolTableRecord
100
AcDbLinetypeTableRecord
  2
ACAD_ISO13W100
 70
     0
  3
CADPAC LINETYPE
 72
    65
 73
     8
 40
11.91574724172521
 49
2.978936810431302
 74
     0
 49
-1.489468405215651
 74
     0
 49
2.978936810431302
 74
     0
 49
-1.489468405215651
 74
     0
 49
0.0
 74
     0
 49
-1.489468405215651
 74
     0
 49
0.0
 74
     0
 49
-1.489468405215651
 74
     0
  0
LTYPE
  5
4A
330
5
100
AcDbSymbolTableRecord
100
AcDbLinetypeTableRecord
  2
ACAD_ISO14W100
 70
     0
  3
CADPAC LINETYPE
 72
    65
 73
     8
 40
8.936810431293907
 49
2.978936810431302
 74
     0
 49
-1.489468405215651
 74
     0
 49
0.0
 74
     0
 49
-1.489468405215651
 74
     0
 49
0.0
 74
     0
 49
-1.489468405215651
 74
     0
 49
0.0
 74
     0
 49
-1.489468405215651
 74
     0
  0
ENDTAB
  0
TABLE
  2
LAYER
  5
2
330
0
100
AcDbSymbolTable
 70
     5
  0
LAYER
  5
10
330
2
100
AcDbSymbolTableRecord
100
AcDbLayerTableRecord
  2
0
 70
     0
 62
     7
  6
CONTINUOUS
  0
LAYER
  5
2B
330
2
100
AcDbSymbolTableRecord
100
AcDbLayerTableRecord
  2
LAYER0001
 70
     0
 62
     7
  6
CONTINUOUS
  0
LAYER
  5
2C
330
2
100
AcDbSymbolTableRecord
100
AcDbLayerTableRecord
  2
LAYER0016
 70
     0
 62
     7
  6
CONTINUOUS
  0
LAYER
  5
2D
330
2
100
AcDbSymbolTableRecord
100
AcDbLayerTableRecord
  2
LAYER0032
 70
     0
 62
     7
  6
CONTINUOUS
  0
LAYER
  5
2E
330
2
100
AcDbSymbolTableRecord
100
AcDbLayerTableRecord
  2
LAYER0240
 70
     0
 62
     7
  6
CONTINUOUS
  0
ENDTAB
  0
TABLE
  2
STYLE
  5
3
330
0
100
AcDbSymbolTable
 70
     3
  0
STYLE
  5
11
330
3
100
AcDbSymbolTableRecord
100
AcDbTextStyleTableRecord
  2
STANDARD
 70
     0
 40
0.0
 41
1.0
 50
0.0
 71
     0
 42
0.2
  3
txt
  4

  0
STYLE
  5
BD
330
3
100
AcDbSymbolTableRecord
100
AcDbTextStyleTableRecord
  2
FDASTYLE0
 70
     0
 40
120.0
 41
0.9316770186335404
 50
0.0
 71
     0
 42
0.2
  3
MSMINCHO.TTC
  4

1001
ACAD
1000
ＭＳ 明朝
1071
    32802
  0
STYLE
  5
12E
330
3
100
AcDbSymbolTableRecord
100
AcDbTextStyleTableRecord
  2
FDASTYLE1
 70
     0
 40
42.0
 41
0.8000000000000005
 50
0.0
 71
     0
 42
0.2
  3
txt.shx
  4
bigfont
  0
ENDTAB
  0
TABLE
  2
VIEW
  5
6
330
0
100
AcDbSymbolTable
 70
     0
  0
ENDTAB
  0
TABLE
  2
UCS
  5
7
330
0
100
AcDbSymbolTable
 70
     0
  0
ENDTAB
  0
TABLE
  2
APPID
  5
9
330
0
100
AcDbSymbolTable
 70
     2
  0
APPID
  5
12
330
9
100
AcDbSymbolTableRecord
100
AcDbRegAppTableRecord
  2
ACAD
 70
     0
  0
APPID
  5
2A
330
9
100
AcDbSymbolTableRecord
100
AcDbRegAppTableRecord
  2
DAFUSIONOUT
 70
     0
  0
ENDTAB
  0
TABLE
  2
DIMSTYLE
  5
A
330
0
100
AcDbSymbolTable
 70
     1
  0
DIMSTYLE
105
27
330
A
100
AcDbSymbolTableRecord
100
AcDbDimStyleTableRecord
  2
STANDARD
 70
     0
  3

  4

  5

  6

  7

 40
1.0
 41
0.18
 42
0.0625
 43
0.38
 44
0.18
 45
0.0
 46
0.0
 47
0.0
 48
0.0
140
0.18
141
0.09
142
0.0
143
25.4
144
1.0
145
0.0
146
1.0
147
0.09
 71
     0
 72
     0
 73
     1
 74
     1
 75
     0
 76
     0
 77
     0
 78
     0
170
     0
171
     2
172
     0
173
     0
174
     0
175
     0
176
     0
177
     0
178
     0
270
     2
271
     4
272
     4
273
     2
274
     2
340
11
275
     0
280
     0
281
     0
282
     0
283
     1
284
     0
285
     0
286
     0
287
     3
288
     0
  0
ENDTAB
  0
TABLE
  2
BLOCK_RECORD
  5
1
330
0
100
AcDbSymbolTable
 70
    40
  0
BLOCK_RECORD
  5
1F
330
1
100
AcDbSymbolTableRecord
100
AcDbBlockTableRecord
  2
*MODEL_SPACE
  0
BLOCK_RECORD
  5
1B
330
1
100
AcDbSymbolTableRecord
100
AcDbBlockTableRecord
  2
*PAPER_SPACE
  0
BLOCK_RECORD
  5
4B
330
1
100
AcDbSymbolTableRecord
100
AcDbBlockTableRecord
  2
DC_GROUP_1
  0
BLOCK_RECORD
  5
4E
330
1
100
AcDbSymbolTableRecord
100
AcDbBlockTableRecord
  2
DC_GROUP_2
  0
BLOCK_RECORD
  5
51
330
1
100
AcDbSymbolTableRecord
100
AcDbBlockTableRecord
  2
DC_GROUP_3
  0
BLOCK_RECORD
  5
54
330
1
100
AcDbSymbolTableRecord
100
AcDbBlockTableRecord
  2
DC_GROUP_4
  0
BLOCK_RECORD
  5
57
330
1
100
AcDbSymbolTableRecord
100
AcDbBlockTableRecord
  2
DC_GROUP_5
  0
BLOCK_RECORD
  5
5A
330
1
100
AcDbSymbolTableRecord
100
AcDbBlockTableRecord
  2
DC_GROUP_6
  0
BLOCK_RECORD
  5
5D
330
1
100
AcDbSymbolTableRecord
100
AcDbBlockTableRecord
  2
DC_GROUP_7
  0
BLOCK_RECORD
  5
60
330
1
100
AcDbSymbolTableRecord
100
AcDbBlockTableRecord
  2
DC_GROUP_8
  0
BLOCK_RECORD
  5
63
330
1
100
AcDbSymbolTableRecord
100
AcDbBlockTableRecord
  2
DC_GROUP_9
  0
BLOCK_RECORD
  5
66
330
1
100
AcDbSymbolTableRecord
100
AcDbBlockTableRecord
  2
DC_GROUP_10
  0
BLOCK_RECORD
  5
69
330
1
100
AcDbSymbolTableRecord
100
AcDbBlockTableRecord
  2
DC_GROUP_11
  0
BLOCK_RECORD
  5
6C
330
1
100
AcDbSymbolTableRecord
100
AcDbBlockTableRecord
  2
DA_IMAGEDIMGROUP_1
  0
BLOCK_RECORD
  5
6F
330
1
100
AcDbSymbolTableRecord
100
AcDbBlockTableRecord
  2
DA_IMAGEDIMGROUP_2
  0
BLOCK_RECORD
  5
72
330
1
100
AcDbSymbolTableRecord
100
AcDbBlockTableRecord
  2
DA_IMAGEDIMGROUP_3
  0
BLOCK_RECORD
  5
75
330
1
100
AcDbSymbolTableRecord
100
AcDbBlockTableRecord
  2
DA_IMAGEDIMGROUP_4
  0
BLOCK_RECORD
  5
78
330
1
100
AcDbSymbolTableRecord
100
AcDbBlockTableRecord
  2
DC_GROUP_12
  0
BLOCK_RECORD
  5
7B
330
1
100
AcDbSymbolTableRecord
100
AcDbBlockTableRecord
  2
DC_GROUP_13
  0
BLOCK_RECORD
  5
7E
330
1
100
AcDbSymbolTableRecord
100
AcDbBlockTableRecord
  2
DC_GROUP_14
  0
BLOCK_RECORD
  5
81
330
1
100
AcDbSymbolTableRecord
100
AcDbBlockTableRecord
  2
DC_GROUP_15
  0
BLOCK_RECORD
  5
84
330
1
100
AcDbSymbolTableRecord
100
AcDbBlockTableRecord
  2
DA_IMAGEDIMGROUP_5
  0
BLOCK_RECORD
  5
87
330
1
100
AcDbSymbolTableRecord
100
AcDbBlockTableRecord
  2
DA_IMAGEDIMGROUP_6
  0
BLOCK_RECORD
  5
8A
330
1
100
AcDbSymbolTableRecord
100
AcDbBlockTableRecord
  2
DA_IMAGEDIMGROUP_7
  0
BLOCK_RECORD
  5
8D
330
1
100
AcDbSymbolTableRecord
100
AcDbBlockTableRecord
  2
DA_IMAGEDIMGROUP_8
  0
BLOCK_RECORD
  5
90
330
1
100
AcDbSymbolTableRecord
100
AcDbBlockTableRecord
  2
DA_IMAGEDIMGROUP_9
  0
BLOCK_RECORD
  5
93
330
1
100
AcDbSymbolTableRecord
100
AcDbBlockTableRecord
  2
DC_GROUP_16
  0
BLOCK_RECORD
  5
96
330
1
100
AcDbSymbolTableRecord
100
AcDbBlockTableRecord
  2
DC_GROUP_17
  0
BLOCK_RECORD
  5
99
330
1
100
AcDbSymbolTableRecord
100
AcDbBlockTableRecord
  2
DC_GROUP_18
  0
BLOCK_RECORD
  5
9C
330
1
100
AcDbSymbolTableRecord
100
AcDbBlockTableRecord
  2
DC_GROUP_19
  0
BLOCK_RECORD
  5
9F
330
1
100
AcDbSymbolTableRecord
100
AcDbBlockTableRecord
  2
DC_GROUP_20
  0
BLOCK_RECORD
  5
A2
330
1
100
AcDbSymbolTableRecord
100
AcDbBlockTableRecord
  2
DC_GROUP_21
  0
BLOCK_RECORD
  5
A5
330
1
100
AcDbSymbolTableRecord
100
AcDbBlockTableRecord
  2
DC_GROUP_22
  0
BLOCK_RECORD
  5
A8
330
1
100
AcDbSymbolTableRecord
100
AcDbBlockTableRecord
  2
DC_GROUP_23
  0
BLOCK_RECORD
  5
AB
330
1
100
AcDbSymbolTableRecord
100
AcDbBlockTableRecord
  2
DC_GROUP_24
  0
BLOCK_RECORD
  5
AE
330
1
100
AcDbSymbolTableRecord
100
AcDbBlockTableRecord
  2
DA_IMAGEDIMGROUP_10
  0
BLOCK_RECORD
  5
B1
330
1
100
AcDbSymbolTableRecord
100
AcDbBlockTableRecord
  2
DA_IMAGEDIMGROUP_11
  0
BLOCK_RECORD
  5
B4
330
1
100
AcDbSymbolTableRecord
100
AcDbBlockTableRecord
  2
DC_GROUP_25
  0
BLOCK_RECORD
  5
B7
330
1
100
AcDbSymbolTableRecord
100
AcDbBlockTableRecord
  2
DC_GROUP_26
  0
BLOCK_RECORD
  5
BA
330
1
100
AcDbSymbolTableRecord
100
AcDbBlockTableRecord
  2
DA_IMAGEDIMGROUP_12
  0
BLOCK_RECORD
  5
124
330
1
100
AcDbSymbolTableRecord
100
AcDbBlockTableRecord
  2
_OPEN30
  0
ENDTAB
  0
ENDSEC
  0
SECTION
  2
BLOCKS
  0
BLOCK
  5
20
330
1F
100
AcDbEntity
  8
0
100
AcDbBlockBegin
  2
*MODEL_SPACE
 70
     0
 71
     0
 10
0.0
 20
0.0
 30
0.0
  3
*MODEL_SPACE
  1

  0
ENDBLK
  5
21
330
1F
100
AcDbEntity
  8
0
100
AcDbBlockEnd
  0
BLOCK
  5
1C
330
1B
100
AcDbEntity
 67
     1
  8
0
100
AcDbBlockBegin
  2
*PAPER_SPACE
 70
     0
 71
     0
 10
0.0
 20
0.0
 30
0.0
  3
*PAPER_SPACE
  1

  0
ENDBLK
  5
1D
330
1B
100
AcDbEntity
 67
     1
  8
0
100
AcDbBlockEnd
  0
BLOCK
  5
4C
330
4B
100
AcDbEntity
  8
0
100
AcDbBlockBegin
  2
DC_GROUP_1
 70
     0
 71
     0
 10
0.0
 20
0.0
 30
0.0
  3
DC_GROUP_1
  1

  0
TEXT
  5
BE
330
4B
100
AcDbEntity
  8
0
 62
     3
100
AcDbText
 10
1125.635111876076
 20
490.3580034423408
 30
0.0
 40
120.0
  1
ＡＥ-1809
 41
0.8608093552854286
  7
FDASTYLE0
 72
     5
 11
1797.635111876076
 21
490.3580034423408
 31
0.0
100
AcDbText
  0
LINE
  5
BF
330
4B
100
AcDbEntity
  8
0
 62
     3
100
AcDbLine
 10
1113.635111876076
 20
478.3580034423408
 30
0.0
 11
1809.635111876076
 21
478.3580034423408
 31
0.0
  0
LINE
  5
C0
330
4B
100
AcDbEntity
  8
0
 62
     3
100
AcDbLine
 10
1809.635111876076
 20
478.3580034423408
 30
0.0
 11
1809.635111876076
 21
622.3580034423408
 31
0.0
  0
LINE
  5
C1
330
4B
100
AcDbEntity
  8
0
 62
     3
100
AcDbLine
 10
1113.635111876076
 20
622.3580034423408
 30
0.0
 11
1809.635111876076
 21
622.3580034423408
 31
0.0
  0
LINE
  5
C2
330
4B
100
AcDbEntity
  8
0
 62
     3
100
AcDbLine
 10
1113.635111876076
 20
478.3580034423408
 30
0.0
 11
1113.635111876076
 21
622.3580034423408
 31
0.0
  0
ENDBLK
  5
4D
330
4B
100
AcDbEntity
  8
0
100
AcDbBlockEnd
  0
BLOCK
  5
4F
330
4E
100
AcDbEntity
  8
0
100
AcDbBlockBegin
  2
DC_GROUP_2
 70
     0
 71
     0
 10
0.0
 20
0.0
 30
0.0
  3
DC_GROUP_2
  1

  0
LINE
  5
C3
330
4E
100
AcDbEntity
  8
LAYER0032
 62
     3
100
AcDbLine
 10
-909.1292842566627
 20
-318.2207331140506
 30
0.0
 11
-909.1292842566627
 21
-321.0454554390774
 31
0.0
  0
LINE
  5
C4
330
4E
100
AcDbEntity
  8
LAYER0032
 62
     3
100
AcDbLine
 10
-907.1085583144986
 20
-321.0454554390774
 30
0.0
 11
-907.1085583144986
 21
-318.2207331140506
 31
0.0
  0
LINE
  5
C5
330
4E
100
AcDbEntity
  8
LAYER0032
 62
     3
100
AcDbLine
 10
-908.1189212855807
 20
-321.4207331140506
 30
0.0
 11
-902.0396472277444
 21
-321.4207331140509
 31
0.0
  0
LINE
  5
C6
330
4E
100
AcDbEntity
  8
LAYER0032
 62
     3
100
AcDbLine
 10
-901.0292842566623
 20
-318.2207331140508
 30
0.0
 11
-901.0292842566623
 21
-321.0454554390777
 31
0.0
  0
LINE
  5
C7
330
4E
100
AcDbEntity
  8
LAYER0032
 62
     3
100
AcDbLine
 10
-903.0500101988264
 20
-318.2207331140508
 30
0.0
 11
-903.0500101988264
 21
-321.0454554390777
 31
0.0
  0
ARC
  5
C8
330
4E
100
AcDbEntity
  8
LAYER0032
 62
     3
100
AcDbCircle
 10
-908.1189212855807
 20
-319.8729902770309
 30
0.0
 40
1.547742837019889
100
AcDbArc
 50
229.2471295723266
 51
310.7528704276733
  0
ARC
  5
C9
330
4E
100
AcDbEntity
  8
LAYER0032
 62
     3
100
AcDbCircle
 10
-902.0396472277444
 20
-319.8729902770311
 30
0.0
 40
1.547742837019889
100
AcDbArc
 50
229.2471295723266
 51
310.7528704276733
  0
ARC
  5
CA
330
4E
100
AcDbEntity
  8
LAYER0032
 62
     3
100
AcDbCircle
 10
-905.0792842566625
 20
-315.746552608317
 30
0.0
 40
5.674180505733874
100
AcDbArc
 50
249.0451000818411
 51
290.9548999181588
  0
ENDBLK
  5
50
330
4E
100
AcDbEntity
  8
0
100
AcDbBlockEnd
  0
BLOCK
  5
52
330
51
100
AcDbEntity
  8
0
100
AcDbBlockBegin
  2
DC_GROUP_3
 70
     0
 71
     0
 10
0.0
 20
0.0
 30
0.0
  3
DC_GROUP_3
  1

  0
LINE
  5
CB
330
51
100
AcDbEntity
  8
LAYER0032
 62
     3
100
AcDbLine
 10
-909.1292842566627
 20
-340.7207331140502
 30
0.0
 11
-909.1292842566627
 21
-338.2960107890235
 31
0.0
  0
LINE
  5
CC
330
51
100
AcDbEntity
  8
LAYER0032
 62
     3
100
AcDbLine
 10
-907.1085583144986
 20
-340.7207331140502
 30
0.0
 11
-907.1085583144986
 21
-338.2960107890235
 31
0.0
  0
LINE
  5
CD
330
51
100
AcDbEntity
  8
LAYER0032
 62
     3
100
AcDbLine
 10
-909.1292842566627
 20
-340.7207331140502
 30
0.0
 11
-901.0292842566623
 21
-340.7207331140505
 31
0.0
  0
LINE
  5
CE
330
51
100
AcDbEntity
  8
LAYER0032
 62
     3
100
AcDbLine
 10
-908.1189212855807
 20
-337.9207331140503
 30
0.0
 11
-902.0396472277444
 21
-337.9207331140505
 31
0.0
  0
LINE
  5
CF
330
51
100
AcDbEntity
  8
LAYER0032
 62
     3
100
AcDbLine
 10
-901.0292842566623
 20
-340.7207331140505
 30
0.0
 11
-901.0292842566623
 21
-338.2960107890237
 31
0.0
  0
LINE
  5
D0
330
51
100
AcDbEntity
  8
LAYER0032
 62
     3
100
AcDbLine
 10
-903.0500101988264
 20
-340.7207331140505
 30
0.0
 11
-903.0500101988264
 21
-338.2960107890237
 31
0.0
  0
ARC
  5
D1
330
51
100
AcDbEntity
  8
LAYER0032
 62
     3
100
AcDbCircle
 10
-908.1189212855807
 20
-339.4684759510701
 30
0.0
 40
1.54774283701983
100
AcDbArc
 50
49.24712957232752
 51
130.7528704276724
  0
ARC
  5
D2
330
51
100
AcDbEntity
  8
LAYER0032
 62
     3
100
AcDbCircle
 10
-902.0396472277444
 20
-339.4684759510703
 30
0.0
 40
1.54774283701983
100
AcDbArc
 50
49.24712957232752
 51
130.7528704276724
  0
ARC
  5
D3
330
51
100
AcDbEntity
  8
LAYER0032
 62
     3
100
AcDbCircle
 10
-905.0792842566625
 20
-343.5949136197843
 30
0.0
 40
5.67418050573392
100
AcDbArc
 50
69.04510008184064
 51
110.9548999181592
  0
LINE
  5
D4
330
51
100
AcDbEntity
  8
LAYER0032
 62
     3
100
AcDbLine
 10
-901.2792842566623
 20
-341.7207331140505
 30
0.0
 11
-901.2792842566623
 21
-340.7207331140505
 31
0.0
  0
LINE
  5
D5
330
51
100
AcDbEntity
  8
LAYER0032
 62
     3
100
AcDbLine
 10
-908.8792842566627
 20
-341.7207331140502
 30
0.0
 11
-908.8792842566627
 21
-340.7207331140502
 31
0.0
  0
ENDBLK
  5
53
330
51
100
AcDbEntity
  8
0
100
AcDbBlockEnd
  0
BLOCK
  5
55
330
54
100
AcDbEntity
  8
0
100
AcDbBlockBegin
  2
DC_GROUP_4
 70
     0
 71
     0
 10
0.0
 20
0.0
 30
0.0
  3
DC_GROUP_4
  1

  0
LINE
  5
D6
330
54
100
AcDbEntity
  8
LAYER0032
 62
     3
100
AcDbLine
 10
-901.0292842566623
 20
-345.7207331140505
 30
0.0
 11
-901.0292842566623
 21
-348.1454554390772
 31
0.0
  0
LINE
  5
D7
330
54
100
AcDbEntity
  8
LAYER0032
 62
     3
100
AcDbLine
 10
-903.0500101988264
 20
-345.7207331140505
 30
0.0
 11
-903.0500101988264
 21
-348.1454554390772
 31
0.0
  0
LINE
  5
D8
330
54
100
AcDbEntity
  8
LAYER0032
 62
     3
100
AcDbLine
 10
-901.0292842566623
 20
-345.7207331140505
 30
0.0
 11
-909.1292842566627
 21
-345.7207331140502
 31
0.0
  0
LINE
  5
D9
330
54
100
AcDbEntity
  8
LAYER0032
 62
     3
100
AcDbLine
 10
-902.0396472277444
 20
-348.5207331140504
 30
0.0
 11
-908.1189212855807
 21
-348.5207331140502
 31
0.0
  0
LINE
  5
DA
330
54
100
AcDbEntity
  8
LAYER0032
 62
     3
100
AcDbLine
 10
-909.1292842566627
 20
-345.7207331140502
 30
0.0
 11
-909.1292842566627
 21
-348.145455439077
 31
0.0
  0
LINE
  5
DB
330
54
100
AcDbEntity
  8
LAYER0032
 62
     3
100
AcDbLine
 10
-907.1085583144986
 20
-345.7207331140502
 30
0.0
 11
-907.1085583144986
 21
-348.145455439077
 31
0.0
  0
ARC
  5
DC
330
54
100
AcDbEntity
  8
LAYER0032
 62
     3
100
AcDbCircle
 10
-902.0396472277444
 20
-346.9729902770307
 30
0.0
 40
1.54774283701983
100
AcDbArc
 50
229.2471295723275
 51
310.7528704276724
  0
ARC
  5
DD
330
54
100
AcDbEntity
  8
LAYER0032
 62
     3
100
AcDbCircle
 10
-908.1189212855807
 20
-346.9729902770304
 30
0.0
 40
1.54774283701983
100
AcDbArc
 50
229.2471295723275
 51
310.7528704276724
  0
ARC
  5
DE
330
54
100
AcDbEntity
  8
LAYER0032
 62
     3
100
AcDbCircle
 10
-905.0792842566625
 20
-342.8465526083166
 30
0.0
 40
5.67418050573392
100
AcDbArc
 50
249.0451000818406
 51
290.9548999181592
  0
LINE
  5
DF
330
54
100
AcDbEntity
  8
LAYER0032
 62
     3
100
AcDbLine
 10
-908.8792842566627
 20
-344.7207331140502
 30
0.0
 11
-908.8792842566627
 21
-345.7207331140502
 31
0.0
  0
LINE
  5
E0
330
54
100
AcDbEntity
  8
LAYER0032
 62
     3
100
AcDbLine
 10
-901.2792842566623
 20
-344.7207331140505
 30
0.0
 11
-901.2792842566623
 21
-345.7207331140505
 31
0.0
  0
ENDBLK
  5
56
330
54
100
AcDbEntity
  8
0
100
AcDbBlockEnd
  0
BLOCK
  5
58
330
57
100
AcDbEntity
  8
0
100
AcDbBlockBegin
  2
DC_GROUP_5
 70
     0
 71
     0
 10
0.0
 20
0.0
 30
0.0
  3
DC_GROUP_5
  1

  0
LINE
  5
E1
330
57
100
AcDbEntity
  8
LAYER0032
 62
     3
100
AcDbLine
 10
-901.5792842566625
 20
-366.0019836974958
 30
0.0
 11
-908.5792842566625
 21
-366.0019836974955
 31
0.0
  0
LINE
  5
E2
330
57
100
AcDbEntity
  8
LAYER0032
 62
     3
100
AcDbLine
 10
-901.5792842566625
 20
-366.0019836974958
 30
0.0
 11
-901.6473209997785
 21
-367.3002020926768
 31
0.0
  0
LINE
  5
E3
330
57
100
AcDbEntity
  8
LAYER0032
 62
     3
100
AcDbLine
 10
-908.5792842566625
 20
-366.0019836974955
 30
0.0
 11
-908.5112475135466
 21
-367.3002020926766
 31
0.0
  0
ARC
  5
E4
330
57
100
AcDbEntity
  8
LAYER0032
 62
     3
100
AcDbCircle
 10
-902.609372206769
 20
-367.2497831253618
 30
0.0
 40
0.9633714741142343
100
AcDbArc
 50
288.8489688275917
 51
356.9999999999999
  0
ARC
  5
E5
330
57
100
AcDbEntity
  8
LAYER0032
 62
     3
100
AcDbCircle
 10
-907.549196306556
 20
-367.2497831253616
 30
0.0
 40
0.9633714741142343
100
AcDbArc
 50
183.0
 51
251.1510311724082
  0
ARC
  5
E6
330
57
100
AcDbEntity
  8
LAYER0032
 62
     3
100
AcDbCircle
 10
-905.0792842566625
 20
-359.6019836974959
 30
0.0
 40
9.0
100
AcDbArc
 50
251.9999999999999
 51
287.9999999999999
  0
LINE
  5
E7
330
57
100
AcDbEntity
  8
LAYER0032
 62
     3
100
AcDbLine
 10
-907.0792842566625
 20
-366.0019836974955
 30
0.0
 11
-907.0792842566625
 21
-348.5207331140503
 31
0.0
  0
LINE
  5
E8
330
57
100
AcDbEntity
  8
LAYER0032
 62
     3
100
AcDbLine
 10
-907.0792842566625
 20
-321.4207331140507
 30
0.0
 11
-907.0792842566625
 21
-337.9207331140504
 31
0.0
  0
LINE
  5
E9
330
57
100
AcDbEntity
  8
LAYER0032
 62
     3
100
AcDbLine
 10
-903.0792842566625
 20
-366.0019836974958
 30
0.0
 11
-903.0792842566625
 21
-348.5207331140504
 31
0.0
  0
LINE
  5
EA
330
57
100
AcDbEntity
  8
LAYER0032
 62
     3
100
AcDbLine
 10
-903.0792842566625
 20
-321.0454554390777
 30
0.0
 11
-903.0792842566625
 21
-337.9207331140505
 31
0.0
  0
ENDBLK
  5
59
330
57
100
AcDbEntity
  8
0
100
AcDbBlockEnd
  0
BLOCK
  5
5B
330
5A
100
AcDbEntity
  8
0
100
AcDbBlockBegin
  2
DC_GROUP_6
 70
     0
 71
     0
 10
0.0
 20
0.0
 30
0.0
  3
DC_GROUP_6
  1

  0
LINE
  5
EB
330
5A
100
AcDbEntity
  8
0
 62
     3
100
AcDbLine
 10
-1522.579284256666
 20
-865.2207331140505
 30
0.0
 11
-1522.579284256666
 21
-833.2207331140619
 31
0.0
  0
LINE
  5
EC
330
5A
100
AcDbEntity
  8
0
 62
     3
100
AcDbLine
 10
-1492.579284256665
 20
-865.2207331140505
 30
0.0
 11
-1492.579284256665
 21
-833.2207331140619
 31
0.0
  0
LINE
  5
ED
330
5A
100
AcDbEntity
  8
0
 62
     4
100
AcDbLine
 10
-1520.684784256665
 20
-865.2207331140505
 30
0.0
 11
-1520.684784256665
 21
-833.2207331140619
 31
0.0
  0
LINE
  5
EE
330
5A
100
AcDbEntity
  8
0
 62
     4
100
AcDbLine
 10
-1494.473784256666
 20
-865.2207331140505
 30
0.0
 11
-1494.473784256666
 21
-833.2207331140619
 31
0.0
  0
ENDBLK
  5
5C
330
5A
100
AcDbEntity
  8
0
100
AcDbBlockEnd
  0
BLOCK
  5
5E
330
5D
100
AcDbEntity
  8
0
100
AcDbBlockBegin
  2
DC_GROUP_7
 70
     0
 71
     0
 10
0.0
 20
0.0
 30
0.0
  3
DC_GROUP_7
  1

  0
LINE
  5
EF
330
5D
100
AcDbEntity
  8
0
 62
     3
100
AcDbLine
 10
-1606.629284256668
 20
-326.7207331140505
 30
0.0
 11
-1606.629284256668
 21
-333.5949000891307
 31
0.0
  0
LINE
  5
F0
330
5D
100
AcDbEntity
  8
0
 62
     3
100
AcDbLine
 10
-1612.11411181397
 20
-326.7207331140505
 30
0.0
 11
-1612.11411181397
 21
-333.5949000891307
 31
0.0
  0
LINE
  5
F1
330
5D
100
AcDbEntity
  8
0
 62
     3
100
AcDbLine
 10
-1609.371698035319
 20
-334.7207331140505
 30
0.0
 11
-1625.786870478017
 21
-334.7207331140505
 31
0.0
  0
LINE
  5
F2
330
5D
100
AcDbEntity
  8
0
 62
     3
100
AcDbLine
 10
-1628.529284256668
 20
-326.7207331140505
 30
0.0
 11
-1628.529284256668
 21
-333.5949000891307
 31
0.0
  0
LINE
  5
F3
330
5D
100
AcDbEntity
  8
0
 62
     3
100
AcDbLine
 10
-1623.044456699367
 20
-326.7207331140505
 30
0.0
 11
-1623.044456699367
 21
-333.5949000891307
 31
0.0
  0
ARC
  5
F4
330
5D
100
AcDbEntity
  8
0
 62
     3
100
AcDbCircle
 10
-1609.371698035319
 20
-330.817697255798
 30
0.0
 40
3.903035858252559
100
AcDbArc
 50
225.361119214051
 51
314.6388807859514
  0
ARC
  5
F5
330
5D
100
AcDbEntity
  8
0
 62
     3
100
AcDbCircle
 10
-1625.786870478017
 20
-330.817697255798
 30
0.0
 40
3.903035858252399
100
AcDbArc
 50
225.3611192140486
 51
314.638880785949
  0
ARC
  5
F6
330
5D
100
AcDbEntity
  8
0
 62
     3
100
AcDbCircle
 10
-1617.579284256668
 20
-320.8929233326442
 30
0.0
 40
13.8278097814063
100
AcDbArc
 50
246.7196482575294
 51
293.2803517424706
  0
LINE
  5
F7
330
5D
100
AcDbEntity
  8
0
 62
     3
100
AcDbLine
 10
-1629.579284256668
 20
-324.2207331140505
 30
0.0
 11
-1629.579284256668
 21
-326.7207331140505
 31
0.0
  0
LINE
  5
F8
330
5D
100
AcDbEntity
  8
0
 62
     3
100
AcDbLine
 10
-1605.579284256668
 20
-324.2207331140505
 30
0.0
 11
-1629.579284256668
 21
-324.2207331140505
 31
0.0
  0
LINE
  5
F9
330
5D
100
AcDbEntity
  8
0
 62
     3
100
AcDbLine
 10
-1605.579284256668
 20
-324.2207331140505
 30
0.0
 11
-1605.579284256668
 21
-326.7207331140505
 31
0.0
  0
LINE
  5
FA
330
5D
100
AcDbEntity
  8
0
 62
     3
100
AcDbLine
 10
-1605.579284256668
 20
-326.7207331140505
 30
0.0
 11
-1629.579284256668
 21
-326.7207331140505
 31
0.0
  0
ENDBLK
  5
5F
330
5D
100
AcDbEntity
  8
0
100
AcDbBlockEnd
  0
BLOCK
  5
61
330
60
100
AcDbEntity
  8
0
100
AcDbBlockBegin
  2
DC_GROUP_8
 70
     0
 71
     0
 10
0.0
 20
0.0
 30
0.0
  3
DC_GROUP_8
  1

  0
LINE
  5
FB
330
60
100
AcDbEntity
  8
0
 62
     3
100
AcDbLine
 10
-1408.529284256662
 20
-326.7207331140505
 30
0.0
 11
-1408.529284256662
 21
-333.5949000891307
 31
0.0
  0
LINE
  5
FC
330
60
100
AcDbEntity
  8
0
 62
     3
100
AcDbLine
 10
-1403.044456699361
 20
-326.7207331140505
 30
0.0
 11
-1403.044456699361
 21
-333.5949000891307
 31
0.0
  0
LINE
  5
FD
330
60
100
AcDbEntity
  8
0
 62
     3
100
AcDbLine
 10
-1405.786870478012
 20
-334.7207331140505
 30
0.0
 11
-1389.371698035313
 21
-334.7207331140505
 31
0.0
  0
LINE
  5
FE
330
60
100
AcDbEntity
  8
0
 62
     3
100
AcDbLine
 10
-1386.629284256662
 20
-326.7207331140505
 30
0.0
 11
-1386.629284256662
 21
-333.5949000891307
 31
0.0
  0
LINE
  5
FF
330
60
100
AcDbEntity
  8
0
 62
     3
100
AcDbLine
 10
-1392.114111813964
 20
-326.7207331140505
 30
0.0
 11
-1392.114111813964
 21
-333.5949000891307
 31
0.0
  0
ARC
  5
100
330
60
100
AcDbEntity
  8
0
 62
     3
100
AcDbCircle
 10
-1405.786870478012
 20
-330.817697255798
 30
0.0
 40
3.903035858252559
100
AcDbArc
 50
225.3611192140486
 51
314.638880785949
  0
ARC
  5
101
330
60
100
AcDbEntity
  8
0
 62
     3
100
AcDbCircle
 10
-1389.371698035313
 20
-330.817697255798
 30
0.0
 40
3.903035858252399
100
AcDbArc
 50
225.361119214051
 51
314.6388807859514
  0
ARC
  5
102
330
60
100
AcDbEntity
  8
0
 62
     3
100
AcDbCircle
 10
-1397.579284256662
 20
-320.8929233326442
 30
0.0
 40
13.8278097814063
100
AcDbArc
 50
246.7196482575294
 51
293.2803517424706
  0
LINE
  5
103
330
60
100
AcDbEntity
  8
0
 62
     3
100
AcDbLine
 10
-1385.579284256662
 20
-324.2207331140505
 30
0.0
 11
-1385.579284256662
 21
-326.7207331140505
 31
0.0
  0
LINE
  5
104
330
60
100
AcDbEntity
  8
0
 62
     3
100
AcDbLine
 10
-1409.579284256662
 20
-324.2207331140505
 30
0.0
 11
-1385.579284256662
 21
-324.2207331140505
 31
0.0
  0
LINE
  5
105
330
60
100
AcDbEntity
  8
0
 62
     3
100
AcDbLine
 10
-1409.579284256662
 20
-324.2207331140505
 30
0.0
 11
-1409.579284256662
 21
-326.7207331140505
 31
0.0
  0
LINE
  5
106
330
60
100
AcDbEntity
  8
0
 62
     3
100
AcDbLine
 10
-1409.579284256662
 20
-326.7207331140505
 30
0.0
 11
-1385.579284256662
 21
-326.7207331140505
 31
0.0
  0
ENDBLK
  5
62
330
60
100
AcDbEntity
  8
0
100
AcDbBlockEnd
  0
BLOCK
  5
64
330
63
100
AcDbEntity
  8
0
100
AcDbBlockBegin
  2
DC_GROUP_9
 70
     0
 71
     0
 10
0.0
 20
0.0
 30
0.0
  3
DC_GROUP_9
  1

  0
LINE
  5
107
330
63
100
AcDbEntity
  8
0
 62
     3
100
AcDbLine
 10
-292.5792842566648
 20
-865.2207331140505
 30
0.0
 11
-292.5792842566648
 21
-833.2207331140619
 31
0.0
  0
LINE
  5
108
330
63
100
AcDbEntity
  8
0
 62
     3
100
AcDbLine
 10
-322.579284256665
 20
-865.2207331140505
 30
0.0
 11
-322.579284256665
 21
-833.2207331140619
 31
0.0
  0
LINE
  5
109
330
63
100
AcDbEntity
  8
0
 62
     4
100
AcDbLine
 10
-294.4737842566651
 20
-865.2207331140505
 30
0.0
 11
-294.4737842566651
 21
-833.2207331140619
 31
0.0
  0
LINE
  5
10A
330
63
100
AcDbEntity
  8
0
 62
     4
100
AcDbLine
 10
-320.6847842566647
 20
-865.2207331140505
 30
0.0
 11
-320.6847842566647
 21
-833.2207331140619
 31
0.0
  0
ENDBLK
  5
65
330
63
100
AcDbEntity
  8
0
100
AcDbBlockEnd
  0
BLOCK
  5
67
330
66
100
AcDbEntity
  8
0
100
AcDbBlockBegin
  2
DC_GROUP_10
 70
     0
 71
     0
 10
0.0
 20
0.0
 30
0.0
  3
DC_GROUP_10
  1

  0
LINE
  5
10B
330
66
100
AcDbEntity
  8
0
 62
     3
100
AcDbLine
 10
-208.5292842566621
 20
-326.7207331140505
 30
0.0
 11
-208.5292842566621
 21
-333.5949000891307
 31
0.0
  0
LINE
  5
10C
330
66
100
AcDbEntity
  8
0
 62
     3
100
AcDbLine
 10
-203.0444566993606
 20
-326.7207331140505
 30
0.0
 11
-203.0444566993606
 21
-333.5949000891307
 31
0.0
  0
LINE
  5
10D
330
66
100
AcDbEntity
  8
0
 62
     3
100
AcDbLine
 10
-205.7868704780112
 20
-334.7207331140505
 30
0.0
 11
-189.3716980353129
 21
-334.7207331140505
 31
0.0
  0
LINE
  5
10E
330
66
100
AcDbEntity
  8
0
 62
     3
100
AcDbLine
 10
-186.629284256662
 20
-326.7207331140505
 30
0.0
 11
-186.629284256662
 21
-333.5949000891307
 31
0.0
  0
LINE
  5
10F
330
66
100
AcDbEntity
  8
0
 62
     3
100
AcDbLine
 10
-192.1141118139635
 20
-326.7207331140505
 30
0.0
 11
-192.1141118139635
 21
-333.5949000891307
 31
0.0
  0
ARC
  5
110
330
66
100
AcDbEntity
  8
0
 62
     3
100
AcDbCircle
 10
-205.7868704780112
 20
-330.817697255798
 30
0.0
 40
3.903035858252559
100
AcDbArc
 50
225.3611192140486
 51
314.638880785949
  0
ARC
  5
111
330
66
100
AcDbEntity
  8
0
 62
     3
100
AcDbCircle
 10
-189.3716980353129
 20
-330.817697255798
 30
0.0
 40
3.903035858252399
100
AcDbArc
 50
225.361119214051
 51
314.6388807859514
  0
ARC
  5
112
330
66
100
AcDbEntity
  8
0
 62
     3
100
AcDbCircle
 10
-197.5792842566621
 20
-320.8929233326442
 30
0.0
 40
13.8278097814063
100
AcDbArc
 50
246.7196482575294
 51
293.2803517424706
  0
LINE
  5
113
330
66
100
AcDbEntity
  8
0
 62
     3
100
AcDbLine
 10
-185.5792842566621
 20
-324.2207331140505
 30
0.0
 11
-185.5792842566621
 21
-326.7207331140505
 31
0.0
  0
LINE
  5
114
330
66
100
AcDbEntity
  8
0
 62
     3
100
AcDbLine
 10
-209.5792842566621
 20
-324.2207331140505
 30
0.0
 11
-185.5792842566621
 21
-324.2207331140505
 31
0.0
  0
LINE
  5
115
330
66
100
AcDbEntity
  8
0
 62
     3
100
AcDbLine
 10
-209.5792842566621
 20
-324.2207331140505
 30
0.0
 11
-209.5792842566621
 21
-326.7207331140505
 31
0.0
  0
LINE
  5
116
330
66
100
AcDbEntity
  8
0
 62
     3
100
AcDbLine
 10
-209.5792842566621
 20
-326.7207331140505
 30
0.0
 11
-185.5792842566621
 21
-326.7207331140505
 31
0.0
  0
ENDBLK
  5
68
330
66
100
AcDbEntity
  8
0
100
AcDbBlockEnd
  0
BLOCK
  5
6A
330
69
100
AcDbEntity
  8
0
100
AcDbBlockBegin
  2
DC_GROUP_11
 70
     0
 71
     0
 10
0.0
 20
0.0
 30
0.0
  3
DC_GROUP_11
  1

  0
LINE
  5
117
330
69
100
AcDbEntity
  8
0
 62
     3
100
AcDbLine
 10
-406.6292842566679
 20
-326.7207331140505
 30
0.0
 11
-406.6292842566679
 21
-333.5949000891307
 31
0.0
  0
LINE
  5
118
330
69
100
AcDbEntity
  8
0
 62
     3
100
AcDbLine
 10
-412.1141118139694
 20
-326.7207331140505
 30
0.0
 11
-412.1141118139694
 21
-333.5949000891307
 31
0.0
  0
LINE
  5
119
330
69
100
AcDbEntity
  8
0
 62
     3
100
AcDbLine
 10
-409.3716980353188
 20
-334.7207331140505
 30
0.0
 11
-425.7868704780171
 21
-334.7207331140505
 31
0.0
  0
LINE
  5
11A
330
69
100
AcDbEntity
  8
0
 62
     3
100
AcDbLine
 10
-428.529284256668
 20
-326.7207331140505
 30
0.0
 11
-428.529284256668
 21
-333.5949000891307
 31
0.0
  0
LINE
  5
11B
330
69
100
AcDbEntity
  8
0
 62
     3
100
AcDbLine
 10
-423.0444566993665
 20
-326.7207331140505
 30
0.0
 11
-423.0444566993665
 21
-333.5949000891307
 31
0.0
  0
ARC
  5
11C
330
69
100
AcDbEntity
  8
0
 62
     3
100
AcDbCircle
 10
-409.3716980353188
 20
-330.817697255798
 30
0.0
 40
3.903035858252559
100
AcDbArc
 50
225.361119214051
 51
314.6388807859514
  0
ARC
  5
11D
330
69
100
AcDbEntity
  8
0
 62
     3
100
AcDbCircle
 10
-425.7868704780171
 20
-330.817697255798
 30
0.0
 40
3.903035858252399
100
AcDbArc
 50
225.3611192140486
 51
314.638880785949
  0
ARC
  5
11E
330
69
100
AcDbEntity
  8
0
 62
     3
100
AcDbCircle
 10
-417.579284256668
 20
-320.8929233326442
 30
0.0
 40
13.8278097814063
100
AcDbArc
 50
246.7196482575294
 51
293.2803517424706
  0
LINE
  5
11F
330
69
100
AcDbEntity
  8
0
 62
     3
100
AcDbLine
 10
-429.579284256668
 20
-324.2207331140505
 30
0.0
 11
-429.579284256668
 21
-326.7207331140505
 31
0.0
  0
LINE
  5
120
330
69
100
AcDbEntity
  8
0
 62
     3
100
AcDbLine
 10
-405.579284256668
 20
-324.2207331140505
 30
0.0
 11
-429.579284256668
 21
-324.2207331140505
 31
0.0
  0
LINE
  5
121
330
69
100
AcDbEntity
  8
0
 62
     3
100
AcDbLine
 10
-405.579284256668
 20
-324.2207331140505
 30
0.0
 11
-405.579284256668
 21
-326.7207331140505
 31
0.0
  0
LINE
  5
122
330
69
100
AcDbEntity
  8
0
 62
     3
100
AcDbLine
 10
-405.579284256668
 20
-326.7207331140505
 30
0.0
 11
-429.579284256668
 21
-326.7207331140505
 31
0.0
  0
ENDBLK
  5
6B
330
69
100
AcDbEntity
  8
0
100
AcDbBlockEnd
  0
BLOCK
  5
6D
330
6C
100
AcDbEntity
  8
0
100
AcDbBlockBegin
  2
DA_IMAGEDIMGROUP_1
 70
     0
 71
     0
 10
0.0
 20
0.0
 30
0.0
  3
DA_IMAGEDIMGROUP_1
  1

  0
LINE
  5
123
330
6C
100
AcDbEntity
  8
0
 62
     9
100
AcDbLine
 10
-1407.579284256665
 20
-1129.811434302909
 30
0.0
 11
-407.579284256665
 21
-1129.811434302909
 31
0.0
  0
INSERT
  5
12A
330
6C
100
AcDbEntity
  8
0
 62
     9
100
AcDbBlockReference
  2
_OPEN30
 10
-1407.579284256665
 20
-1129.811434302909
 30
0.0
 41
36.00003345389238
 42
35.99987128774157
 50
180.0
  0
INSERT
  5
12B
330
6C
100
AcDbEntity
  8
0
 62
     9
100
AcDbBlockReference
  2
_OPEN30
 10
-407.579284256665
 20
-1129.811434302909
 30
0.0
 41
36.00003345389238
 42
35.99987128774157
 50
360.0
  0
LINE
  5
12C
330
6C
100
AcDbEntity
  8
0
 62
     9
100
AcDbLine
 10
-1407.579284256665
 20
-826.2207331140626
 30
0.0
 11
-1407.579284256665
 21
-1141.811434302909
 31
0.0
  0
LINE
  5
12D
330
6C
100
AcDbEntity
  8
0
 62
     9
100
AcDbLine
 10
-407.579284256665
 20
-826.2207331140626
 30
0.0
 11
-407.579284256665
 21
-1141.811434302909
 31
0.0
  0
TEXT
  5
12F
330
6C
100
AcDbEntity
  8
0
 62
     7
100
AcDbText
 10
-974.7792842566652
 20
-1117.811434302909
 30
0.0
 40
42.0
  1
1000
 41
0.8000000000000005
  7
FDASTYLE1
 72
     5
 11
-840.3792842566651
 21
-1117.811434302909
 31
0.0
100
AcDbText
  0
ENDBLK
  5
6E
330
6C
100
AcDbEntity
  8
0
100
AcDbBlockEnd
  0
BLOCK
  5
70
330
6F
100
AcDbEntity
  8
0
100
AcDbBlockBegin
  2
DA_IMAGEDIMGROUP_2
 70
     0
 71
     0
 10
0.0
 20
0.0
 30
0.0
  3
DA_IMAGEDIMGROUP_2
  1

  0
LINE
  5
130
330
6F
100
AcDbEntity
  8
0
 62
     9
100
AcDbLine
 10
-407.579284256665
 20
-1014.695085255768
 30
0.0
 11
-207.5792842566648
 21
-1014.695085255768
 31
0.0
  0
LINE
  5
131
330
6F
100
AcDbEntity
  8
0
 62
     9
100
AcDbLine
 10
-407.579284256665
 20
-826.2207331140626
 30
0.0
 11
-407.579284256665
 21
-1026.695085255768
 31
0.0
  0
LINE
  5
132
330
6F
100
AcDbEntity
  8
0
 62
     9
100
AcDbLine
 10
-207.5792842566648
 20
-826.2207331140626
 30
0.0
 11
-207.5792842566648
 21
-1026.695085255768
 31
0.0
  0
LINE
  5
133
330
6F
100
AcDbEntity
  8
0
 62
     9
100
AcDbLine
 10
-14.40592425666478
 20
-1014.695085255768
 30
0.0
 11
-207.5792842566648
 21
-1014.695085255768
 31
0.0
  0
INSERT
  5
134
330
6F
100
AcDbEntity
  8
0
 62
     9
100
AcDbBlockReference
  2
_OPEN30
 10
-207.5792842566648
 20
-1014.695085255768
 30
0.0
 41
36.00003345389238
 42
35.99987128774157
 50
180.0
  0
LINE
  5
135
330
6F
100
AcDbEntity
  8
0
 62
     9
100
AcDbLine
 10
-467.579284256665
 20
-1014.695085255768
 30
0.0
 11
-407.579284256665
 21
-1014.695085255768
 31
0.0
  0
INSERT
  5
136
330
6F
100
AcDbEntity
  8
0
 62
     9
100
AcDbBlockReference
  2
_OPEN30
 10
-407.579284256665
 20
-1014.695085255768
 30
0.0
 41
36.00003345389238
 42
35.99987128774157
 50
360.0
  0
TEXT
  5
137
330
6F
100
AcDbEntity
  8
0
 62
     7
100
AcDbText
 10
-160.8059242566648
 20
-1002.695085255768
 30
0.0
 40
42.0
  1
□200
 41
0.7619047619047619
  7
FDASTYLE1
 72
     5
 11
-26.40592425666475
 21
-1002.695085255768
 31
0.0
100
AcDbText
  0
ENDBLK
  5
71
330
6F
100
AcDbEntity
  8
0
100
AcDbBlockEnd
  0
BLOCK
  5
73
330
72
100
AcDbEntity
  8
0
100
AcDbBlockBegin
  2
DA_IMAGEDIMGROUP_3
 70
     0
 71
     0
 10
0.0
 20
0.0
 30
0.0
  3
DA_IMAGEDIMGROUP_3
  1

  0
LINE
  5
138
330
72
100
AcDbEntity
  8
0
 62
     9
100
AcDbLine
 10
215.2778335005021
 20
-908.2207331140505
 30
0.0
 11
215.2778335005021
 21
-814.2207331140626
 31
0.0
  0
INSERT
  5
139
330
72
100
AcDbEntity
  8
0
 62
     9
100
AcDbBlockReference
  2
_OPEN30
 10
215.2778335005021
 20
-908.2207331140505
 30
0.0
 41
36.00003345389238
 42
35.99987128774157
 50
270.0
  0
INSERT
  5
13A
330
72
100
AcDbEntity
  8
0
 62
     9
100
AcDbBlockReference
  2
_OPEN30
 10
215.2778335005021
 20
-814.2207331140626
 30
0.0
 41
36.00003345389238
 42
35.99987128774157
 50
90.0
  0
LINE
  5
13B
330
72
100
AcDbEntity
  8
0
 62
     9
100
AcDbLine
 10
215.2778335005021
 20
-814.2207331140626
 30
0.0
 11
215.2778335005021
 21
-419.2207331140621
 31
0.0
  0
INSERT
  5
13C
330
72
100
AcDbEntity
  8
0
 62
     9
100
AcDbBlockReference
  2
_OPEN30
 10
215.2778335005021
 20
-814.2207331140626
 30
0.0
 41
36.00003345389238
 42
35.99987128774157
 50
270.0
  0
INSERT
  5
13D
330
72
100
AcDbEntity
  8
0
 62
     9
100
AcDbBlockReference
  2
_OPEN30
 10
215.2778335005021
 20
-419.2207331140621
 30
0.0
 41
36.00003345389238
 42
35.99987128774157
 50
90.0
  0
LINE
  5
13E
330
72
100
AcDbEntity
  8
0
 62
     9
100
AcDbLine
 10
-255.5792842566648
 20
-908.2207331140505
 30
0.0
 11
227.2778335005021
 21
-908.2207331140505
 31
0.0
  0
LINE
  5
13F
330
72
100
AcDbEntity
  8
0
 62
     9
100
AcDbLine
 10
-195.5792842566648
 20
-814.2207331140626
 30
0.0
 11
227.2778335005021
 21
-814.2207331140626
 31
0.0
  0
LINE
  5
140
330
72
100
AcDbEntity
  8
0
 62
     9
100
AcDbLine
 10
-170.5792842566648
 20
-419.2207331140621
 30
0.0
 11
227.2778335005021
 21
-419.2207331140621
 31
0.0
  0
TEXT
  5
141
330
72
100
AcDbEntity
  8
0
 62
     7
100
AcDbText
 10
203.2778335005021
 20
-894.8207331140567
 30
0.0
 40
42.0
  1
94
 50
90.0
 41
0.8000000000000005
  7
FDASTYLE1
 72
     5
 11
203.2778335005021
 21
-827.6207331140566
 31
0.0
100
AcDbText
  0
TEXT
  5
142
330
72
100
AcDbEntity
  8
0
 62
     7
100
AcDbText
 10
203.2778335005021
 20
-667.1207331140623
 30
0.0
 40
42.0
  1
395
 50
90.0
 41
0.7999999999999996
  7
FDASTYLE1
 72
     5
 11
203.2778335005021
 21
-566.3207331140624
 31
0.0
100
AcDbText
  0
ENDBLK
  5
74
330
72
100
AcDbEntity
  8
0
100
AcDbBlockEnd
  0
BLOCK
  5
76
330
75
100
AcDbEntity
  8
0
100
AcDbBlockBegin
  2
DA_IMAGEDIMGROUP_4
 70
     0
 71
     0
 10
0.0
 20
0.0
 30
0.0
  3
DA_IMAGEDIMGROUP_4
  1

  0
LINE
  5
143
330
75
100
AcDbEntity
  8
0
 62
     9
100
AcDbLine
 10
73.56469408224686
 20
-814.2207331140626
 30
0.0
 11
73.56469408224686
 21
-750.2207331140503
 31
0.0
  0
LINE
  5
144
330
75
100
AcDbEntity
  8
0
 62
     9
100
AcDbLine
 10
73.56469408224686
 20
-625.2207331140503
 30
0.0
 11
73.56469408224686
 21
-564.2207331140503
 31
0.0
  0
LINE
  5
145
330
75
100
AcDbEntity
  8
0
 62
     9
100
AcDbLine
 10
73.56469408224686
 20
-439.2207331140504
 30
0.0
 11
73.56469408224686
 21
-419.2207331140621
 31
0.0
  0
LINE
  5
146
330
75
100
AcDbEntity
  8
0
 62
     9
100
AcDbLine
 10
-195.5792842566648
 20
-814.2207331140626
 30
0.0
 11
85.56469408224686
 21
-814.2207331140626
 31
0.0
  0
LINE
  5
147
330
75
100
AcDbEntity
  8
0
 62
     9
100
AcDbLine
 10
-233.0792842566648
 20
-750.2207331140503
 30
0.0
 11
85.56469408224686
 21
-750.2207331140503
 31
0.0
  0
LINE
  5
148
330
75
100
AcDbEntity
  8
0
 62
     9
100
AcDbLine
 10
-233.0792842566648
 20
-625.2207331140503
 30
0.0
 11
85.56469408224686
 21
-625.2207331140503
 31
0.0
  0
LINE
  5
149
330
75
100
AcDbEntity
  8
0
 62
     9
100
AcDbLine
 10
-233.0792842566648
 20
-564.2207331140503
 30
0.0
 11
85.56469408224686
 21
-564.2207331140503
 31
0.0
  0
LINE
  5
14A
330
75
100
AcDbEntity
  8
0
 62
     9
100
AcDbLine
 10
-233.0792842566648
 20
-439.2207331140504
 30
0.0
 11
85.56469408224686
 21
-439.2207331140504
 31
0.0
  0
LINE
  5
14B
330
75
100
AcDbEntity
  8
0
 62
     9
100
AcDbLine
 10
-170.5792842566648
 20
-419.2207331140621
 30
0.0
 11
85.56469408224686
 21
-419.2207331140621
 31
0.0
  0
LINE
  5
14C
330
75
100
AcDbEntity
  8
0
 62
     9
100
AcDbLine
 10
73.56469408224686
 20
-750.2207331140503
 30
0.0
 11
73.56469408224686
 21
-625.2207331140503
 31
0.0
  0
INSERT
  5
14D
330
75
100
AcDbEntity
  8
0
 62
     9
100
AcDbBlockReference
  2
_OPEN30
 10
73.56469408224686
 20
-750.2207331140503
 30
0.0
 41
36.00003345389238
 42
35.99987128774157
 50
270.0
  0
INSERT
  5
14E
330
75
100
AcDbEntity
  8
0
 62
     9
100
AcDbBlockReference
  2
_OPEN30
 10
73.56469408224686
 20
-625.2207331140503
 30
0.0
 41
36.00003345389238
 42
35.99987128774157
 50
90.0
  0
LINE
  5
14F
330
75
100
AcDbEntity
  8
0
 62
     9
100
AcDbLine
 10
73.56469408224686
 20
-564.2207331140503
 30
0.0
 11
73.56469408224686
 21
-439.2207331140504
 31
0.0
  0
INSERT
  5
150
330
75
100
AcDbEntity
  8
0
 62
     9
100
AcDbBlockReference
  2
_OPEN30
 10
73.56469408224686
 20
-564.2207331140503
 30
0.0
 41
36.00003345389238
 42
35.99987128774157
 50
270.0
  0
INSERT
  5
151
330
75
100
AcDbEntity
  8
0
 62
     9
100
AcDbBlockReference
  2
_OPEN30
 10
73.56469408224686
 20
-439.2207331140504
 30
0.0
 41
36.00003345389238
 42
35.99987128774157
 50
90.0
  0
LINE
  5
152
330
75
100
AcDbEntity
  8
0
 62
     9
100
AcDbLine
 10
73.56469408224686
 20
-293.247373114062
 30
0.0
 11
73.56469408224686
 21
-419.2207331140621
 31
0.0
  0
INSERT
  5
153
330
75
100
AcDbEntity
  8
0
 62
     9
100
AcDbBlockReference
  2
_OPEN30
 10
73.56469408224686
 20
-419.2207331140621
 30
0.0
 41
36.00003345389238
 42
35.99987128774157
 50
270.0
  0
LINE
  5
154
330
75
100
AcDbEntity
  8
0
 62
     9
100
AcDbLine
 10
73.56469408224685
 20
-1007.394093114063
 30
0.0
 11
73.56469408224686
 21
-814.2207331140626
 31
0.0
  0
INSERT
  5
155
330
75
100
AcDbEntity
  8
0
 62
     9
100
AcDbBlockReference
  2
_OPEN30
 10
73.56469408224686
 20
-814.2207331140626
 30
0.0
 41
36.00003345389238
 42
35.99987128774157
 50
89.99999999999999
  0
TEXT
  5
156
330
75
100
AcDbEntity
  8
0
 62
     7
100
AcDbText
 10
61.56469408224686
 20
-995.3940931140627
 30
0.0
 40
42.0
  1
64
 50
90.0
 41
0.8000000000000005
  7
FDASTYLE1
 72
     5
 11
61.56469408224686
 21
-928.1940931140626
 31
0.0
100
AcDbText
  0
TEXT
  5
157
330
75
100
AcDbEntity
  8
0
 62
     7
100
AcDbText
 10
61.56469408224686
 20
-738.1207331140503
 30
0.0
 40
42.0
  1
125
 50
90.0
 41
0.7999999999999996
  7
FDASTYLE1
 72
     5
 11
61.56469408224686
 21
-637.3207331140503
 31
0.0
100
AcDbText
  0
TEXT
  5
158
330
75
100
AcDbEntity
  8
0
 62
     7
100
AcDbText
 10
127.5646940822469
 20
-628.3207331140503
 30
0.0
 40
42.0
  1
61
 50
90.0
 41
0.8000000000000005
  7
FDASTYLE1
 72
     5
 11
127.5646940822469
 21
-561.1207331140503
 31
0.0
100
AcDbText
  0
TEXT
  5
159
330
75
100
AcDbEntity
  8
0
 62
     7
100
AcDbText
 10
61.56469408224686
 20
-552.1207331140504
 30
0.0
 40
42.0
  1
125
 50
90.0
 41
0.8000000000000005
  7
FDASTYLE1
 72
     5
 11
61.56469408224686
 21
-451.3207331140503
 31
0.0
100
AcDbText
  0
TEXT
  5
15A
330
75
100
AcDbEntity
  8
0
 62
     7
100
AcDbText
 10
61.56469408224687
 20
-372.447373114062
 30
0.0
 40
42.0
  1
20
 50
90.0
 41
0.7999999999999998
  7
FDASTYLE1
 72
     5
 11
61.56469408224687
 21
-305.247373114062
 31
0.0
100
AcDbText
  0
ENDBLK
  5
77
330
75
100
AcDbEntity
  8
0
100
AcDbBlockEnd
  0
BLOCK
  5
79
330
78
100
AcDbEntity
  8
0
100
AcDbBlockBegin
  2
DC_GROUP_12
 70
     0
 71
     0
 10
0.0
 20
0.0
 30
0.0
  3
DC_GROUP_12
  1

  0
LINE
  5
15B
330
78
100
AcDbEntity
  8
0
 62
     3
100
AcDbLine
 10
-1335.079284256665
 20
-765.8207331140503
 30
0.0
 11
-1335.079284256665
 21
-770.6279127910227
 31
0.0
  0
LINE
  5
15C
330
78
100
AcDbEntity
  8
0
 62
     3
100
AcDbLine
 10
-1338.832061006398
 20
-765.8207331140503
 30
0.0
 11
-1338.832061006398
 21
-770.6279127910227
 31
0.0
  0
LINE
  5
15D
330
78
100
AcDbEntity
  8
0
 62
     3
100
AcDbLine
 10
-1336.955672631532
 20
-771.3207331140503
 30
0.0
 11
-1348.202895881799
 21
-771.3207331140503
 31
0.0
  0
LINE
  5
15E
330
78
100
AcDbEntity
  8
0
 62
     3
100
AcDbLine
 10
-1350.079284256665
 20
-765.8207331140503
 30
0.0
 11
-1350.079284256665
 21
-770.6279127910227
 31
0.0
  0
LINE
  5
15F
330
78
100
AcDbEntity
  8
0
 62
     3
100
AcDbLine
 10
-1346.326507506933
 20
-765.8207331140503
 30
0.0
 11
-1346.326507506933
 21
-770.6279127910227
 31
0.0
  0
ARC
  5
160
330
78
100
AcDbEntity
  8
0
 62
     3
100
AcDbCircle
 10
-1336.955672631532
 20
-768.4333803615718
 30
0.0
 40
2.887352752478486
100
AcDbArc
 50
229.4686050581028
 51
310.5313949418973
  0
ARC
  5
161
330
78
100
AcDbEntity
  8
0
 62
     3
100
AcDbCircle
 10
-1348.202895881799
 20
-768.4333803615718
 30
0.0
 40
2.887352752478486
100
AcDbArc
 50
229.4686050581028
 51
310.5313949418973
  0
ARC
  5
162
330
78
100
AcDbEntity
  8
0
 62
     3
100
AcDbCircle
 10
-1342.579284256665
 20
-760.8406117862819
 30
0.0
 40
10.48012132776833
100
AcDbArc
 50
249.0498637736406
 51
290.9501362263594
  0
LINE
  5
163
330
78
100
AcDbEntity
  8
0
 62
     3
100
AcDbLine
 10
-1351.079284256665
 20
-764.2207331140503
 30
0.0
 11
-1351.079284256665
 21
-765.8207331140503
 31
0.0
  0
LINE
  5
164
330
78
100
AcDbEntity
  8
0
 62
     3
100
AcDbLine
 10
-1334.079284256665
 20
-764.2207331140503
 30
0.0
 11
-1351.079284256665
 21
-764.2207331140503
 31
0.0
  0
LINE
  5
165
330
78
100
AcDbEntity
  8
0
 62
     3
100
AcDbLine
 10
-1334.079284256665
 20
-764.2207331140503
 30
0.0
 11
-1334.079284256665
 21
-765.8207331140503
 31
0.0
  0
LINE
  5
166
330
78
100
AcDbEntity
  8
0
 62
     3
100
AcDbLine
 10
-1334.079284256665
 20
-765.8207331140503
 30
0.0
 11
-1351.079284256665
 21
-765.8207331140503
 31
0.0
  0
ENDBLK
  5
7A
330
78
100
AcDbEntity
  8
0
100
AcDbBlockEnd
  0
BLOCK
  5
7C
330
7B
100
AcDbEntity
  8
0
100
AcDbBlockBegin
  2
DC_GROUP_13
 70
     0
 71
     0
 10
0.0
 20
0.0
 30
0.0
  3
DC_GROUP_13
  1

  0
LINE
  5
167
330
7B
100
AcDbEntity
  8
0
 62
     3
100
AcDbLine
 10
-1270.079284256665
 20
-765.8207331140503
 30
0.0
 11
-1270.079284256665
 21
-770.6279127910227
 31
0.0
  0
LINE
  5
168
330
7B
100
AcDbEntity
  8
0
 62
     3
100
AcDbLine
 10
-1266.326507506933
 20
-765.8207331140503
 30
0.0
 11
-1266.326507506933
 21
-770.6279127910227
 31
0.0
  0
LINE
  5
169
330
7B
100
AcDbEntity
  8
0
 62
     3
100
AcDbLine
 10
-1268.202895881799
 20
-771.3207331140503
 30
0.0
 11
-1256.955672631532
 21
-771.3207331140503
 31
0.0
  0
LINE
  5
16A
330
7B
100
AcDbEntity
  8
0
 62
     3
100
AcDbLine
 10
-1255.079284256665
 20
-765.8207331140503
 30
0.0
 11
-1255.079284256665
 21
-770.6279127910227
 31
0.0
  0
LINE
  5
16B
330
7B
100
AcDbEntity
  8
0
 62
     3
100
AcDbLine
 10
-1258.832061006398
 20
-765.8207331140503
 30
0.0
 11
-1258.832061006398
 21
-770.6279127910227
 31
0.0
  0
ARC
  5
16C
330
7B
100
AcDbEntity
  8
0
 62
     3
100
AcDbCircle
 10
-1268.202895881799
 20
-768.4333803615718
 30
0.0
 40
2.887352752478486
100
AcDbArc
 50
229.4686050581028
 51
310.5313949418973
  0
ARC
  5
16D
330
7B
100
AcDbEntity
  8
0
 62
     3
100
AcDbCircle
 10
-1256.955672631532
 20
-768.4333803615718
 30
0.0
 40
2.887352752478486
100
AcDbArc
 50
229.4686050581028
 51
310.5313949418973
  0
ARC
  5
16E
330
7B
100
AcDbEntity
  8
0
 62
     3
100
AcDbCircle
 10
-1262.579284256665
 20
-760.8406117862819
 30
0.0
 40
10.48012132776833
100
AcDbArc
 50
249.0498637736406
 51
290.9501362263594
  0
LINE
  5
16F
330
7B
100
AcDbEntity
  8
0
 62
     3
100
AcDbLine
 10
-1254.079284256665
 20
-764.2207331140503
 30
0.0
 11
-1254.079284256665
 21
-765.8207331140503
 31
0.0
  0
LINE
  5
170
330
7B
100
AcDbEntity
  8
0
 62
     3
100
AcDbLine
 10
-1271.079284256665
 20
-764.2207331140503
 30
0.0
 11
-1254.079284256665
 21
-764.2207331140503
 31
0.0
  0
LINE
  5
171
330
7B
100
AcDbEntity
  8
0
 62
     3
100
AcDbLine
 10
-1271.079284256665
 20
-764.2207331140503
 30
0.0
 11
-1271.079284256665
 21
-765.8207331140503
 31
0.0
  0
LINE
  5
172
330
7B
100
AcDbEntity
  8
0
 62
     3
100
AcDbLine
 10
-1271.079284256665
 20
-765.8207331140503
 30
0.0
 11
-1254.079284256665
 21
-765.8207331140503
 31
0.0
  0
ENDBLK
  5
7D
330
7B
100
AcDbEntity
  8
0
100
AcDbBlockEnd
  0
BLOCK
  5
7F
330
7E
100
AcDbEntity
  8
0
100
AcDbBlockBegin
  2
DC_GROUP_14
 70
     0
 71
     0
 10
0.0
 20
0.0
 30
0.0
  3
DC_GROUP_14
  1

  0
LINE
  5
173
330
7E
100
AcDbEntity
  8
0
 62
     3
100
AcDbLine
 10
-480.079284256665
 20
-765.8207331140503
 30
0.0
 11
-480.079284256665
 21
-770.6279127910227
 31
0.0
  0
LINE
  5
174
330
7E
100
AcDbEntity
  8
0
 62
     3
100
AcDbLine
 10
-476.3265075069323
 20
-765.8207331140503
 30
0.0
 11
-476.3265075069323
 21
-770.6279127910227
 31
0.0
  0
LINE
  5
175
330
7E
100
AcDbEntity
  8
0
 62
     3
100
AcDbLine
 10
-478.2028958817987
 20
-771.3207331140503
 30
0.0
 11
-466.9556726315313
 21
-771.3207331140503
 31
0.0
  0
LINE
  5
176
330
7E
100
AcDbEntity
  8
0
 62
     3
100
AcDbLine
 10
-465.079284256665
 20
-765.8207331140503
 30
0.0
 11
-465.079284256665
 21
-770.6279127910227
 31
0.0
  0
LINE
  5
177
330
7E
100
AcDbEntity
  8
0
 62
     3
100
AcDbLine
 10
-468.8320610063977
 20
-765.8207331140503
 30
0.0
 11
-468.8320610063977
 21
-770.6279127910227
 31
0.0
  0
ARC
  5
178
330
7E
100
AcDbEntity
  8
0
 62
     3
100
AcDbCircle
 10
-478.2028958817987
 20
-768.4333803615718
 30
0.0
 40
2.887352752478486
100
AcDbArc
 50
229.4686050581028
 51
310.5313949418973
  0
ARC
  5
179
330
7E
100
AcDbEntity
  8
0
 62
     3
100
AcDbCircle
 10
-466.9556726315313
 20
-768.4333803615718
 30
0.0
 40
2.887352752478486
100
AcDbArc
 50
229.4686050581028
 51
310.5313949418973
  0
ARC
  5
17A
330
7E
100
AcDbEntity
  8
0
 62
     3
100
AcDbCircle
 10
-472.579284256665
 20
-760.8406117862819
 30
0.0
 40
10.48012132776833
100
AcDbArc
 50
249.0498637736406
 51
290.9501362263594
  0
LINE
  5
17B
330
7E
100
AcDbEntity
  8
0
 62
     3
100
AcDbLine
 10
-464.079284256665
 20
-764.2207331140503
 30
0.0
 11
-464.079284256665
 21
-765.8207331140503
 31
0.0
  0
LINE
  5
17C
330
7E
100
AcDbEntity
  8
0
 62
     3
100
AcDbLine
 10
-481.079284256665
 20
-764.2207331140503
 30
0.0
 11
-464.079284256665
 21
-764.2207331140503
 31
0.0
  0
LINE
  5
17D
330
7E
100
AcDbEntity
  8
0
 62
     3
100
AcDbLine
 10
-481.079284256665
 20
-764.2207331140503
 30
0.0
 11
-481.079284256665
 21
-765.8207331140503
 31
0.0
  0
LINE
  5
17E
330
7E
100
AcDbEntity
  8
0
 62
     3
100
AcDbLine
 10
-481.079284256665
 20
-765.8207331140503
 30
0.0
 11
-464.079284256665
 21
-765.8207331140503
 31
0.0
  0
ENDBLK
  5
80
330
7E
100
AcDbEntity
  8
0
100
AcDbBlockEnd
  0
BLOCK
  5
82
330
81
100
AcDbEntity
  8
0
100
AcDbBlockBegin
  2
DC_GROUP_15
 70
     0
 71
     0
 10
0.0
 20
0.0
 30
0.0
  3
DC_GROUP_15
  1

  0
LINE
  5
17F
330
81
100
AcDbEntity
  8
0
 62
     3
100
AcDbLine
 10
-545.079284256665
 20
-765.8207331140503
 30
0.0
 11
-545.079284256665
 21
-770.6279127910227
 31
0.0
  0
LINE
  5
180
330
81
100
AcDbEntity
  8
0
 62
     3
100
AcDbLine
 10
-548.8320610063977
 20
-765.8207331140503
 30
0.0
 11
-548.8320610063977
 21
-770.6279127910227
 31
0.0
  0
LINE
  5
181
330
81
100
AcDbEntity
  8
0
 62
     3
100
AcDbLine
 10
-546.9556726315313
 20
-771.3207331140503
 30
0.0
 11
-558.2028958817987
 21
-771.3207331140503
 31
0.0
  0
LINE
  5
182
330
81
100
AcDbEntity
  8
0
 62
     3
100
AcDbLine
 10
-560.079284256665
 20
-765.8207331140503
 30
0.0
 11
-560.079284256665
 21
-770.6279127910227
 31
0.0
  0
LINE
  5
183
330
81
100
AcDbEntity
  8
0
 62
     3
100
AcDbLine
 10
-556.3265075069323
 20
-765.8207331140503
 30
0.0
 11
-556.3265075069323
 21
-770.6279127910227
 31
0.0
  0
ARC
  5
184
330
81
100
AcDbEntity
  8
0
 62
     3
100
AcDbCircle
 10
-546.9556726315313
 20
-768.4333803615718
 30
0.0
 40
2.887352752478486
100
AcDbArc
 50
229.4686050581028
 51
310.5313949418973
  0
ARC
  5
185
330
81
100
AcDbEntity
  8
0
 62
     3
100
AcDbCircle
 10
-558.2028958817987
 20
-768.4333803615718
 30
0.0
 40
2.887352752478486
100
AcDbArc
 50
229.4686050581028
 51
310.5313949418973
  0
ARC
  5
186
330
81
100
AcDbEntity
  8
0
 62
     3
100
AcDbCircle
 10
-552.579284256665
 20
-760.8406117862819
 30
0.0
 40
10.48012132776833
100
AcDbArc
 50
249.0498637736406
 51
290.9501362263594
  0
LINE
  5
187
330
81
100
AcDbEntity
  8
0
 62
     3
100
AcDbLine
 10
-561.079284256665
 20
-764.2207331140503
 30
0.0
 11
-561.079284256665
 21
-765.8207331140503
 31
0.0
  0
LINE
  5
188
330
81
100
AcDbEntity
  8
0
 62
     3
100
AcDbLine
 10
-544.079284256665
 20
-764.2207331140503
 30
0.0
 11
-561.079284256665
 21
-764.2207331140503
 31
0.0
  0
LINE
  5
189
330
81
100
AcDbEntity
  8
0
 62
     3
100
AcDbLine
 10
-544.079284256665
 20
-764.2207331140503
 30
0.0
 11
-544.079284256665
 21
-765.8207331140503
 31
0.0
  0
LINE
  5
18A
330
81
100
AcDbEntity
  8
0
 62
     3
100
AcDbLine
 10
-544.079284256665
 20
-765.8207331140503
 30
0.0
 11
-561.079284256665
 21
-765.8207331140503
 31
0.0
  0
ENDBLK
  5
83
330
81
100
AcDbEntity
  8
0
100
AcDbBlockEnd
  0
BLOCK
  5
85
330
84
100
AcDbEntity
  8
0
100
AcDbBlockBegin
  2
DA_IMAGEDIMGROUP_5
 70
     0
 71
     0
 10
0.0
 20
0.0
 30
0.0
  3
DA_IMAGEDIMGROUP_5
  1

  0
LINE
  5
18B
330
84
100
AcDbEntity
  8
0
 62
     9
100
AcDbLine
 10
-1807.579284256665
 20
1203.77926688595
 30
0.0
 11
-1807.579284256665
 21
1323.77926688595
 31
0.0
  0
LINE
  5
18C
330
84
100
AcDbEntity
  8
0
 62
     9
100
AcDbLine
 10
-7.579284256665119
 20
1203.77926688595
 30
0.0
 11
-7.579284256665119
 21
1323.77926688595
 31
0.0
  0
LINE
  5
18D
330
84
100
AcDbEntity
  8
0
 62
     9
100
AcDbLine
 10
-1807.579284256665
 20
1311.77926688595
 30
0.0
 11
-7.579284256665119
 21
1311.77926688595
 31
0.0
  0
INSERT
  5
18E
330
84
100
AcDbEntity
  8
0
 62
     9
100
AcDbBlockReference
  2
_OPEN30
 10
-1807.579284256665
 20
1311.77926688595
 30
0.0
 41
36.00003345389238
 42
35.99987128774157
 50
180.0
  0
INSERT
  5
18F
330
84
100
AcDbEntity
  8
0
 62
     9
100
AcDbBlockReference
  2
_OPEN30
 10
-7.579284256665119
 20
1311.77926688595
 30
0.0
 41
36.00003345389238
 42
35.99987128774157
 50
360.0
  0
TEXT
  5
190
330
84
100
AcDbEntity
  8
0
 62
     7
100
AcDbText
 10
-974.7792842566653
 20
1323.77926688595
 30
0.0
 40
42.0
  1
1800
 41
0.8000000000000005
  7
FDASTYLE1
 72
     5
 11
-840.3792842566652
 21
1323.77926688595
 31
0.0
100
AcDbText
  0
ENDBLK
  5
86
330
84
100
AcDbEntity
  8
0
100
AcDbBlockEnd
  0
BLOCK
  5
88
330
87
100
AcDbEntity
  8
0
100
AcDbBlockBegin
  2
DA_IMAGEDIMGROUP_6
 70
     0
 71
     0
 10
0.0
 20
0.0
 30
0.0
  3
DA_IMAGEDIMGROUP_6
  1

  0
LINE
  5
191
330
87
100
AcDbEntity
  8
0
 62
     9
100
AcDbLine
 10
4.420715743334881
 20
291.7792668859497
 30
0.0
 11
124.4207157433349
 21
291.7792668859497
 31
0.0
  0
LINE
  5
192
330
87
100
AcDbEntity
  8
0
 62
     9
100
AcDbLine
 10
4.420715743334881
 20
1191.77926688595
 30
0.0
 11
124.4207157433349
 21
1191.77926688595
 31
0.0
  0
LINE
  5
193
330
87
100
AcDbEntity
  8
0
 62
     9
100
AcDbLine
 10
112.4207157433349
 20
291.7792668859497
 30
0.0
 11
112.4207157433349
 21
1191.77926688595
 31
0.0
  0
INSERT
  5
194
330
87
100
AcDbEntity
  8
0
 62
     9
100
AcDbBlockReference
  2
_OPEN30
 10
112.4207157433349
 20
291.7792668859497
 30
0.0
 41
36.00003345389238
 42
35.99987128774157
 50
270.0
  0
INSERT
  5
195
330
87
100
AcDbEntity
  8
0
 62
     9
100
AcDbBlockReference
  2
_OPEN30
 10
112.4207157433349
 20
1191.77926688595
 30
0.0
 41
36.00003345389238
 42
35.99987128774157
 50
90.0
  0
TEXT
  5
196
330
87
100
AcDbEntity
  8
0
 62
     7
100
AcDbText
 10
100.4207157433349
 20
691.3792668859499
 30
0.0
 40
42.0
  1
900
 50
90.0
 41
0.7999999999999996
  7
FDASTYLE1
 72
     5
 11
100.4207157433349
 21
792.1792668859498
 31
0.0
100
AcDbText
  0
ENDBLK
  5
89
330
87
100
AcDbEntity
  8
0
100
AcDbBlockEnd
  0
BLOCK
  5
8B
330
8A
100
AcDbEntity
  8
0
100
AcDbBlockBegin
  2
DA_IMAGEDIMGROUP_7
 70
     0
 71
     0
 10
0.0
 20
0.0
 30
0.0
  3
DA_IMAGEDIMGROUP_7
  1

  0
LINE
  5
197
330
8A
100
AcDbEntity
  8
0
 62
     9
100
AcDbLine
 10
-1507.579284256665
 20
-920.2207331140505
 30
0.0
 11
-1507.579284256665
 21
-1249.811434302909
 31
0.0
  0
LINE
  5
198
330
8A
100
AcDbEntity
  8
0
 62
     9
100
AcDbLine
 10
-307.579284256665
 20
-912.2207331140505
 30
0.0
 11
-307.579284256665
 21
-1249.811434302909
 31
0.0
  0
LINE
  5
199
330
8A
100
AcDbEntity
  8
0
 62
     9
100
AcDbLine
 10
-1507.579284256665
 20
-1237.811434302909
 30
0.0
 11
-307.579284256665
 21
-1237.811434302909
 31
0.0
  0
INSERT
  5
19A
330
8A
100
AcDbEntity
  8
0
 62
     9
100
AcDbBlockReference
  2
_OPEN30
 10
-1507.579284256665
 20
-1237.811434302909
 30
0.0
 41
36.00003345389238
 42
35.99987128774157
 50
180.0
  0
INSERT
  5
19B
330
8A
100
AcDbEntity
  8
0
 62
     9
100
AcDbBlockReference
  2
_OPEN30
 10
-307.579284256665
 20
-1237.811434302909
 30
0.0
 41
36.00003345389238
 42
35.99987128774157
 50
360.0
  0
TEXT
  5
19C
330
8A
100
AcDbEntity
  8
0
 62
     7
100
AcDbText
 10
-974.7792842566652
 20
-1225.811434302909
 30
0.0
 40
42.0
  1
1200
 41
0.8000000000000005
  7
FDASTYLE1
 72
     5
 11
-840.3792842566651
 21
-1225.811434302909
 31
0.0
100
AcDbText
  0
ENDBLK
  5
8C
330
8A
100
AcDbEntity
  8
0
100
AcDbBlockEnd
  0
BLOCK
  5
8E
330
8D
100
AcDbEntity
  8
0
100
AcDbBlockBegin
  2
DA_IMAGEDIMGROUP_8
 70
     0
 71
     0
 10
0.0
 20
0.0
 30
0.0
  3
DA_IMAGEDIMGROUP_8
  1

  0
LINE
  5
19D
330
8D
100
AcDbEntity
  8
0
 62
     9
100
AcDbLine
 10
-1547.579284256666
 20
-920.2207331140505
 30
0.0
 11
-1547.579284256666
 21
-1041.767301905717
 31
0.0
  0
LINE
  5
19E
330
8D
100
AcDbEntity
  8
0
 62
     9
100
AcDbLine
 10
-1467.579284256665
 20
-920.2207331140505
 30
0.0
 11
-1467.579284256665
 21
-1041.767301905717
 31
0.0
  0
LINE
  5
19F
330
8D
100
AcDbEntity
  8
0
 62
     9
100
AcDbLine
 10
-1547.579284256666
 20
-1029.767301905717
 30
0.0
 11
-1467.579284256665
 21
-1029.767301905717
 31
0.0
  0
LINE
  5
1A0
330
8D
100
AcDbEntity
  8
0
 62
     9
100
AcDbLine
 10
-1760.747843530592
 20
-1029.767301905717
 30
0.0
 11
-1547.579284256666
 21
-1029.767301905717
 31
0.0
  0
INSERT
  5
1A1
330
8D
100
AcDbEntity
  8
0
 62
     9
100
AcDbBlockReference
  2
_OPEN30
 10
-1547.579284256666
 20
-1029.767301905717
 30
0.0
 41
36.00003345389238
 42
35.99987128774157
 50
360.0
  0
LINE
  5
1A2
330
8D
100
AcDbEntity
  8
0
 62
     9
100
AcDbLine
 10
-1407.579284256665
 20
-1029.767301905717
 30
0.0
 11
-1467.579284256665
 21
-1029.767301905717
 31
0.0
  0
INSERT
  5
1A3
330
8D
100
AcDbEntity
  8
0
 62
     9
100
AcDbBlockReference
  2
_OPEN30
 10
-1467.579284256665
 20
-1029.767301905717
 30
0.0
 41
36.00003345389238
 42
35.99987128774157
 50
180.0
  0
TEXT
  5
1A4
330
8D
100
AcDbEntity
  8
0
 62
     7
100
AcDbText
 10
-1748.747843530592
 20
-1017.767301905717
 30
0.0
 40
42.0
  1
φ80
 41
0.7499999999999997
  7
FDASTYLE1
 72
     5
 11
-1647.947843530592
 21
-1017.767301905717
 31
0.0
100
AcDbText
  0
ENDBLK
  5
8F
330
8D
100
AcDbEntity
  8
0
100
AcDbBlockEnd
  0
BLOCK
  5
91
330
90
100
AcDbEntity
  8
0
100
AcDbBlockBegin
  2
DA_IMAGEDIMGROUP_9
 70
     0
 71
     0
 10
0.0
 20
0.0
 30
0.0
  3
DA_IMAGEDIMGROUP_9
  1

  0
LINE
  5
1A5
330
90
100
AcDbEntity
  8
0
 62
     9
100
AcDbLine
 10
-243.5792842566648
 20
-908.2207331140505
 30
0.0
 11
347.2778335005021
 21
-908.2207331140505
 31
0.0
  0
LINE
  5
1A6
330
90
100
AcDbEntity
  8
0
 62
     9
100
AcDbLine
 10
4.420715743334881
 20
-108.2207331140504
 30
0.0
 11
347.2778335005021
 21
-108.2207331140504
 31
0.0
  0
LINE
  5
1A7
330
90
100
AcDbEntity
  8
0
 62
     9
100
AcDbLine
 10
335.2778335005021
 20
-908.2207331140505
 30
0.0
 11
335.2778335005021
 21
-108.2207331140504
 31
0.0
  0
INSERT
  5
1A8
330
90
100
AcDbEntity
  8
0
 62
     9
100
AcDbBlockReference
  2
_OPEN30
 10
335.2778335005021
 20
-908.2207331140505
 30
0.0
 41
36.00003345389238
 42
35.99987128774157
 50
270.0
  0
INSERT
  5
1A9
330
90
100
AcDbEntity
  8
0
 62
     9
100
AcDbBlockReference
  2
_OPEN30
 10
335.2778335005021
 20
-108.2207331140504
 30
0.0
 41
36.00003345389238
 42
35.99987128774157
 50
90.0
  0
TEXT
  5
1AA
330
90
100
AcDbEntity
  8
0
 62
     7
100
AcDbText
 10
323.2778335005021
 20
-558.6207331140504
 30
0.0
 40
42.0
  1
800
 50
90.0
 41
0.7999999999999996
  7
FDASTYLE1
 72
     5
 11
323.2778335005021
 21
-457.8207331140504
 31
0.0
100
AcDbText
  0
ENDBLK
  5
92
330
90
100
AcDbEntity
  8
0
100
AcDbBlockEnd
  0
BLOCK
  5
94
330
93
100
AcDbEntity
  8
0
100
AcDbBlockBegin
  2
DC_GROUP_16
 70
     0
 71
     0
 10
0.0
 20
0.0
 30
0.0
  3
DC_GROUP_16
  1

  0
LINE
  5
1AB
330
93
100
AcDbEntity
  8
LAYER0032
 62
     4
100
AcDbLine
 10
1612.60269625868
 20
-456.0387525987108
 30
0.0
 11
1606.238735228001
 21
-462.4027136293898
 31
0.0
  0
ARC
  5
1AC
330
93
100
AcDbEntity
  8
LAYER0032
 62
     4
100
AcDbCircle
 10
1609.42071574334
 20
-459.2207331140502
 30
0.0
 40
4.5
100
AcDbArc
 50
221.8103148957796
 51
491.8103148957786
  0
ENDBLK
  5
95
330
93
100
AcDbEntity
  8
0
100
AcDbBlockEnd
  0
BLOCK
  5
97
330
96
100
AcDbEntity
  8
0
100
AcDbBlockBegin
  2
DC_GROUP_17
 70
     0
 71
     0
 10
0.0
 20
0.0
 30
0.0
  3
DC_GROUP_17
  1

  0
LINE
  5
1AD
330
96
100
AcDbEntity
  8
LAYER0032
 62
     4
100
AcDbLine
 10
1578.42071574334
 20
-456.2207331140502
 30
0.0
 11
1572.238735228001
 21
-462.4027136293898
 31
0.0
  0
ARC
  5
1AE
330
96
100
AcDbEntity
  8
LAYER0032
 62
     4
100
AcDbCircle
 10
1575.42071574334
 20
-459.2207331140502
 30
0.0
 40
4.5
100
AcDbArc
 50
48.18968510422142
 51
318.1896851042235
  0
ENDBLK
  5
98
330
96
100
AcDbEntity
  8
0
100
AcDbBlockEnd
  0
BLOCK
  5
9A
330
99
100
AcDbEntity
  8
0
100
AcDbBlockBegin
  2
DC_GROUP_18
 70
     0
 71
     0
 10
0.0
 20
0.0
 30
0.0
  3
DC_GROUP_18
  1

  0
LINE
  5
1AF
330
99
100
AcDbEntity
  8
LAYER0032
 62
   150
100
AcDbLine
 10
1599.04551863203
 20
-492.6952283073893
 30
0.0
 11
1600.2149443774
 21
-493.7207331140501
 31
0.0
  0
LINE
  5
1B0
330
99
100
AcDbEntity
  8
LAYER0032
 62
   150
100
AcDbLine
 10
1600.2149443774
 20
-493.7207331140501
 30
0.0
 11
1600.518344718986
 21
-495.2462379207109
 31
0.0
  0
LINE
  5
1B1
330
99
100
AcDbEntity
  8
LAYER0032
 62
   150
100
AcDbLine
 10
1580.171360090358
 20
-505.0042267631041
 30
0.0
 11
1580.421360090358
 21
-505.4372394649964
 31
0.0
  0
LINE
  5
1B2
330
99
100
AcDbEntity
  8
LAYER0032
 62
   150
100
AcDbLine
 10
1580.171360090358
 20
-505.004226763104
 30
0.0
 11
1599.04551863203
 21
-492.6952283073893
 31
0.0
  0
LINE
  5
1B3
330
99
100
AcDbEntity
  8
LAYER0032
 62
   150
100
AcDbLine
 10
1600.518344718986
 20
-495.2462379207109
 30
0.0
 11
1580.421360090358
 21
-505.4372394649964
 31
0.0
  0
ENDBLK
  5
9B
330
99
100
AcDbEntity
  8
0
100
AcDbBlockEnd
  0
BLOCK
  5
9D
330
9C
100
AcDbEntity
  8
0
100
AcDbBlockBegin
  2
DC_GROUP_19
 70
     0
 71
     0
 10
0.0
 20
0.0
 30
0.0
  3
DC_GROUP_19
  1

  0
LINE
  5
1B4
330
9C
100
AcDbEntity
  8
0
 62
     3
100
AcDbLine
 10
1277.420715743335
 20
-865.2207331140505
 30
0.0
 11
1277.420715743335
 21
-833.2207331140619
 31
0.0
  0
LINE
  5
1B5
330
9C
100
AcDbEntity
  8
0
 62
     3
100
AcDbLine
 10
1307.420715743335
 20
-865.2207331140505
 30
0.0
 11
1307.420715743335
 21
-833.2207331140619
 31
0.0
  0
LINE
  5
1B6
330
9C
100
AcDbEntity
  8
0
 62
     4
100
AcDbLine
 10
1279.315215743335
 20
-865.2207331140505
 30
0.0
 11
1279.315215743335
 21
-833.2207331140619
 31
0.0
  0
LINE
  5
1B7
330
9C
100
AcDbEntity
  8
0
 62
     4
100
AcDbLine
 10
1305.526215743335
 20
-865.2207331140505
 30
0.0
 11
1305.526215743335
 21
-833.2207331140619
 31
0.0
  0
ENDBLK
  5
9E
330
9C
100
AcDbEntity
  8
0
100
AcDbBlockEnd
  0
BLOCK
  5
A0
330
9F
100
AcDbEntity
  8
0
100
AcDbBlockBegin
  2
DC_GROUP_20
 70
     0
 71
     0
 10
0.0
 20
0.0
 30
0.0
  3
DC_GROUP_20
  1

  0
LINE
  5
1B8
330
9F
100
AcDbEntity
  8
0
 62
     3
100
AcDbLine
 10
1193.370715743332
 20
-326.7207331140504
 30
0.0
 11
1193.370715743332
 21
-333.5949000891306
 31
0.0
  0
LINE
  5
1B9
330
9F
100
AcDbEntity
  8
0
 62
     3
100
AcDbLine
 10
1187.885888186031
 20
-326.7207331140504
 30
0.0
 11
1187.885888186031
 21
-333.5949000891306
 31
0.0
  0
LINE
  5
1BA
330
9F
100
AcDbEntity
  8
0
 62
     3
100
AcDbLine
 10
1190.628301964681
 20
-334.7207331140504
 30
0.0
 11
1174.213129521983
 21
-334.7207331140504
 31
0.0
  0
LINE
  5
1BB
330
9F
100
AcDbEntity
  8
0
 62
     3
100
AcDbLine
 10
1171.470715743332
 20
-326.7207331140504
 30
0.0
 11
1171.470715743332
 21
-333.5949000891306
 31
0.0
  0
LINE
  5
1BC
330
9F
100
AcDbEntity
  8
0
 62
     3
100
AcDbLine
 10
1176.955543300634
 20
-326.7207331140504
 30
0.0
 11
1176.955543300634
 21
-333.5949000891306
 31
0.0
  0
ARC
  5
1BD
330
9F
100
AcDbEntity
  8
0
 62
     3
100
AcDbCircle
 10
1190.628301964681
 20
-330.8176972557979
 30
0.0
 40
3.903035858252559
100
AcDbArc
 50
225.361119214051
 51
314.6388807859514
  0
ARC
  5
1BE
330
9F
100
AcDbEntity
  8
0
 62
     3
100
AcDbCircle
 10
1174.213129521983
 20
-330.8176972557979
 30
0.0
 40
3.903035858252399
100
AcDbArc
 50
225.3611192140486
 51
314.638880785949
  0
ARC
  5
1BF
330
9F
100
AcDbEntity
  8
0
 62
     3
100
AcDbCircle
 10
1182.420715743332
 20
-320.8929233326441
 30
0.0
 40
13.8278097814063
100
AcDbArc
 50
246.7196482575294
 51
293.2803517424706
  0
LINE
  5
1C0
330
9F
100
AcDbEntity
  8
0
 62
     3
100
AcDbLine
 10
1170.420715743332
 20
-324.2207331140504
 30
0.0
 11
1170.420715743332
 21
-326.7207331140504
 31
0.0
  0
LINE
  5
1C1
330
9F
100
AcDbEntity
  8
0
 62
     3
100
AcDbLine
 10
1194.420715743332
 20
-324.2207331140504
 30
0.0
 11
1170.420715743332
 21
-324.2207331140504
 31
0.0
  0
LINE
  5
1C2
330
9F
100
AcDbEntity
  8
0
 62
     3
100
AcDbLine
 10
1194.420715743332
 20
-324.2207331140504
 30
0.0
 11
1194.420715743332
 21
-326.7207331140504
 31
0.0
  0
LINE
  5
1C3
330
9F
100
AcDbEntity
  8
0
 62
     3
100
AcDbLine
 10
1194.420715743332
 20
-326.7207331140504
 30
0.0
 11
1170.420715743332
 21
-326.7207331140504
 31
0.0
  0
ENDBLK
  5
A1
330
9F
100
AcDbEntity
  8
0
100
AcDbBlockEnd
  0
BLOCK
  5
A3
330
A2
100
AcDbEntity
  8
0
100
AcDbBlockBegin
  2
DC_GROUP_21
 70
     0
 71
     0
 10
0.0
 20
0.0
 30
0.0
  3
DC_GROUP_21
  1

  0
LINE
  5
1C4
330
A2
100
AcDbEntity
  8
0
 62
     3
100
AcDbLine
 10
1391.470715743338
 20
-326.7207331140504
 30
0.0
 11
1391.470715743338
 21
-333.5949000891306
 31
0.0
  0
LINE
  5
1C5
330
A2
100
AcDbEntity
  8
0
 62
     3
100
AcDbLine
 10
1396.955543300639
 20
-326.7207331140504
 30
0.0
 11
1396.955543300639
 21
-333.5949000891306
 31
0.0
  0
LINE
  5
1C6
330
A2
100
AcDbEntity
  8
0
 62
     3
100
AcDbLine
 10
1394.213129521989
 20
-334.7207331140504
 30
0.0
 11
1410.628301964687
 21
-334.7207331140504
 31
0.0
  0
LINE
  5
1C7
330
A2
100
AcDbEntity
  8
0
 62
     3
100
AcDbLine
 10
1413.370715743338
 20
-326.7207331140504
 30
0.0
 11
1413.370715743338
 21
-333.5949000891306
 31
0.0
  0
LINE
  5
1C8
330
A2
100
AcDbEntity
  8
0
 62
     3
100
AcDbLine
 10
1407.885888186037
 20
-326.7207331140504
 30
0.0
 11
1407.885888186037
 21
-333.5949000891306
 31
0.0
  0
ARC
  5
1C9
330
A2
100
AcDbEntity
  8
0
 62
     3
100
AcDbCircle
 10
1394.213129521989
 20
-330.8176972557979
 30
0.0
 40
3.903035858252559
100
AcDbArc
 50
225.3611192140486
 51
314.638880785949
  0
ARC
  5
1CA
330
A2
100
AcDbEntity
  8
0
 62
     3
100
AcDbCircle
 10
1410.628301964687
 20
-330.8176972557979
 30
0.0
 40
3.903035858252399
100
AcDbArc
 50
225.361119214051
 51
314.6388807859514
  0
ARC
  5
1CB
330
A2
100
AcDbEntity
  8
0
 62
     3
100
AcDbCircle
 10
1402.420715743338
 20
-320.8929233326441
 30
0.0
 40
13.8278097814063
100
AcDbArc
 50
246.7196482575294
 51
293.2803517424706
  0
LINE
  5
1CC
330
A2
100
AcDbEntity
  8
0
 62
     3
100
AcDbLine
 10
1414.420715743338
 20
-324.2207331140504
 30
0.0
 11
1414.420715743338
 21
-326.7207331140504
 31
0.0
  0
LINE
  5
1CD
330
A2
100
AcDbEntity
  8
0
 62
     3
100
AcDbLine
 10
1390.420715743338
 20
-324.2207331140504
 30
0.0
 11
1414.420715743338
 21
-324.2207331140504
 31
0.0
  0
LINE
  5
1CE
330
A2
100
AcDbEntity
  8
0
 62
     3
100
AcDbLine
 10
1390.420715743338
 20
-324.2207331140504
 30
0.0
 11
1390.420715743338
 21
-326.7207331140504
 31
0.0
  0
LINE
  5
1CF
330
A2
100
AcDbEntity
  8
0
 62
     3
100
AcDbLine
 10
1390.420715743338
 20
-326.7207331140504
 30
0.0
 11
1414.420715743338
 21
-326.7207331140504
 31
0.0
  0
ENDBLK
  5
A4
330
A2
100
AcDbEntity
  8
0
100
AcDbBlockEnd
  0
BLOCK
  5
A6
330
A5
100
AcDbEntity
  8
0
100
AcDbBlockBegin
  2
DC_GROUP_22
 70
     0
 71
     0
 10
0.0
 20
0.0
 30
0.0
  3
DC_GROUP_22
  1

  0
LINE
  5
1D0
330
A5
100
AcDbEntity
  8
0
 62
     3
100
AcDbLine
 10
1907.420715743335
 20
-865.2207331140505
 30
0.0
 11
1907.420715743335
 21
-833.2207331140619
 31
0.0
  0
LINE
  5
1D1
330
A5
100
AcDbEntity
  8
0
 62
     3
100
AcDbLine
 10
1877.420715743335
 20
-865.2207331140505
 30
0.0
 11
1877.420715743335
 21
-833.2207331140619
 31
0.0
  0
LINE
  5
1D2
330
A5
100
AcDbEntity
  8
0
 62
     4
100
AcDbLine
 10
1905.526215743335
 20
-865.2207331140505
 30
0.0
 11
1905.526215743335
 21
-833.2207331140619
 31
0.0
  0
LINE
  5
1D3
330
A5
100
AcDbEntity
  8
0
 62
     4
100
AcDbLine
 10
1879.315215743335
 20
-865.2207331140505
 30
0.0
 11
1879.315215743335
 21
-833.2207331140619
 31
0.0
  0
ENDBLK
  5
A7
330
A5
100
AcDbEntity
  8
0
100
AcDbBlockEnd
  0
BLOCK
  5
A9
330
A8
100
AcDbEntity
  8
0
100
AcDbBlockBegin
  2
DC_GROUP_23
 70
     0
 71
     0
 10
0.0
 20
0.0
 30
0.0
  3
DC_GROUP_23
  1

  0
LINE
  5
1D4
330
A8
100
AcDbEntity
  8
0
 62
     3
100
AcDbLine
 10
1991.470715743338
 20
-326.7207331140504
 30
0.0
 11
1991.470715743338
 21
-333.5949000891306
 31
0.0
  0
LINE
  5
1D5
330
A8
100
AcDbEntity
  8
0
 62
     3
100
AcDbLine
 10
1996.955543300639
 20
-326.7207331140504
 30
0.0
 11
1996.955543300639
 21
-333.5949000891306
 31
0.0
  0
LINE
  5
1D6
330
A8
100
AcDbEntity
  8
0
 62
     3
100
AcDbLine
 10
1994.213129521989
 20
-334.7207331140504
 30
0.0
 11
2010.628301964687
 21
-334.7207331140504
 31
0.0
  0
LINE
  5
1D7
330
A8
100
AcDbEntity
  8
0
 62
     3
100
AcDbLine
 10
2013.370715743338
 20
-326.7207331140504
 30
0.0
 11
2013.370715743338
 21
-333.5949000891306
 31
0.0
  0
LINE
  5
1D8
330
A8
100
AcDbEntity
  8
0
 62
     3
100
AcDbLine
 10
2007.885888186037
 20
-326.7207331140504
 30
0.0
 11
2007.885888186037
 21
-333.5949000891306
 31
0.0
  0
ARC
  5
1D9
330
A8
100
AcDbEntity
  8
0
 62
     3
100
AcDbCircle
 10
1994.213129521989
 20
-330.8176972557979
 30
0.0
 40
3.903035858252559
100
AcDbArc
 50
225.3611192140486
 51
314.638880785949
  0
ARC
  5
1DA
330
A8
100
AcDbEntity
  8
0
 62
     3
100
AcDbCircle
 10
2010.628301964687
 20
-330.8176972557979
 30
0.0
 40
3.903035858252399
100
AcDbArc
 50
225.361119214051
 51
314.6388807859514
  0
ARC
  5
1DB
330
A8
100
AcDbEntity
  8
0
 62
     3
100
AcDbCircle
 10
2002.420715743338
 20
-320.8929233326441
 30
0.0
 40
13.8278097814063
100
AcDbArc
 50
246.7196482575294
 51
293.2803517424706
  0
LINE
  5
1DC
330
A8
100
AcDbEntity
  8
0
 62
     3
100
AcDbLine
 10
2014.420715743338
 20
-324.2207331140504
 30
0.0
 11
2014.420715743338
 21
-326.7207331140504
 31
0.0
  0
LINE
  5
1DD
330
A8
100
AcDbEntity
  8
0
 62
     3
100
AcDbLine
 10
1990.420715743338
 20
-324.2207331140504
 30
0.0
 11
2014.420715743338
 21
-324.2207331140504
 31
0.0
  0
LINE
  5
1DE
330
A8
100
AcDbEntity
  8
0
 62
     3
100
AcDbLine
 10
1990.420715743338
 20
-324.2207331140504
 30
0.0
 11
1990.420715743338
 21
-326.7207331140504
 31
0.0
  0
LINE
  5
1DF
330
A8
100
AcDbEntity
  8
0
 62
     3
100
AcDbLine
 10
1990.420715743338
 20
-326.7207331140504
 30
0.0
 11
2014.420715743338
 21
-326.7207331140504
 31
0.0
  0
ENDBLK
  5
AA
330
A8
100
AcDbEntity
  8
0
100
AcDbBlockEnd
  0
BLOCK
  5
AC
330
AB
100
AcDbEntity
  8
0
100
AcDbBlockBegin
  2
DC_GROUP_24
 70
     0
 71
     0
 10
0.0
 20
0.0
 30
0.0
  3
DC_GROUP_24
  1

  0
LINE
  5
1E0
330
AB
100
AcDbEntity
  8
0
 62
     3
100
AcDbLine
 10
1793.370715743332
 20
-326.7207331140504
 30
0.0
 11
1793.370715743332
 21
-333.5949000891306
 31
0.0
  0
LINE
  5
1E1
330
AB
100
AcDbEntity
  8
0
 62
     3
100
AcDbLine
 10
1787.885888186031
 20
-326.7207331140504
 30
0.0
 11
1787.885888186031
 21
-333.5949000891306
 31
0.0
  0
LINE
  5
1E2
330
AB
100
AcDbEntity
  8
0
 62
     3
100
AcDbLine
 10
1790.628301964681
 20
-334.7207331140504
 30
0.0
 11
1774.213129521983
 21
-334.7207331140504
 31
0.0
  0
LINE
  5
1E3
330
AB
100
AcDbEntity
  8
0
 62
     3
100
AcDbLine
 10
1771.470715743332
 20
-326.7207331140504
 30
0.0
 11
1771.470715743332
 21
-333.5949000891306
 31
0.0
  0
LINE
  5
1E4
330
AB
100
AcDbEntity
  8
0
 62
     3
100
AcDbLine
 10
1776.955543300634
 20
-326.7207331140504
 30
0.0
 11
1776.955543300634
 21
-333.5949000891306
 31
0.0
  0
ARC
  5
1E5
330
AB
100
AcDbEntity
  8
0
 62
     3
100
AcDbCircle
 10
1790.628301964681
 20
-330.8176972557979
 30
0.0
 40
3.903035858252559
100
AcDbArc
 50
225.361119214051
 51
314.6388807859514
  0
ARC
  5
1E6
330
AB
100
AcDbEntity
  8
0
 62
     3
100
AcDbCircle
 10
1774.213129521983
 20
-330.8176972557979
 30
0.0
 40
3.903035858252399
100
AcDbArc
 50
225.3611192140486
 51
314.638880785949
  0
ARC
  5
1E7
330
AB
100
AcDbEntity
  8
0
 62
     3
100
AcDbCircle
 10
1782.420715743332
 20
-320.8929233326441
 30
0.0
 40
13.8278097814063
100
AcDbArc
 50
246.7196482575294
 51
293.2803517424706
  0
LINE
  5
1E8
330
AB
100
AcDbEntity
  8
0
 62
     3
100
AcDbLine
 10
1770.420715743332
 20
-324.2207331140504
 30
0.0
 11
1770.420715743332
 21
-326.7207331140504
 31
0.0
  0
LINE
  5
1E9
330
AB
100
AcDbEntity
  8
0
 62
     3
100
AcDbLine
 10
1794.420715743332
 20
-324.2207331140504
 30
0.0
 11
1770.420715743332
 21
-324.2207331140504
 31
0.0
  0
LINE
  5
1EA
330
AB
100
AcDbEntity
  8
0
 62
     3
100
AcDbLine
 10
1794.420715743332
 20
-324.2207331140504
 30
0.0
 11
1794.420715743332
 21
-326.7207331140504
 31
0.0
  0
LINE
  5
1EB
330
AB
100
AcDbEntity
  8
0
 62
     3
100
AcDbLine
 10
1794.420715743332
 20
-326.7207331140504
 30
0.0
 11
1770.420715743332
 21
-326.7207331140504
 31
0.0
  0
ENDBLK
  5
AD
330
AB
100
AcDbEntity
  8
0
100
AcDbBlockEnd
  0
BLOCK
  5
AF
330
AE
100
AcDbEntity
  8
0
100
AcDbBlockBegin
  2
DA_IMAGEDIMGROUP_10
 70
     0
 71
     0
 10
0.0
 20
0.0
 30
0.0
  3
DA_IMAGEDIMGROUP_10
  1

  0
LINE
  5
1EC
330
AE
100
AcDbEntity
  8
0
 62
     9
100
AcDbLine
 10
1392.420715743335
 20
-1016.220733114051
 30
0.0
 11
1792.420715743335
 21
-1016.220733114051
 31
0.0
  0
INSERT
  5
1ED
330
AE
100
AcDbEntity
  8
0
 62
     9
100
AcDbBlockReference
  2
_OPEN30
 10
1392.420715743335
 20
-1016.220733114051
 30
0.0
 41
36.00003345389238
 42
35.99987128774157
 50
180.0
  0
INSERT
  5
1EE
330
AE
100
AcDbEntity
  8
0
 62
     9
100
AcDbBlockReference
  2
_OPEN30
 10
1792.420715743335
 20
-1016.220733114051
 30
0.0
 41
36.00003345389238
 42
35.99987128774157
 50
360.0
  0
LINE
  5
1EF
330
AE
100
AcDbEntity
  8
0
 62
     9
100
AcDbLine
 10
1392.420715743335
 20
-826.2207331140623
 30
0.0
 11
1392.420715743335
 21
-1028.220733114051
 31
0.0
  0
LINE
  5
1F0
330
AE
100
AcDbEntity
  8
0
 62
     9
100
AcDbLine
 10
1792.420715743335
 20
-826.2207331140623
 30
0.0
 11
1792.420715743335
 21
-1028.220733114051
 31
0.0
  0
TEXT
  5
1F1
330
AE
100
AcDbEntity
  8
0
 62
     7
100
AcDbText
 10
1542.020715743335
 20
-1004.220733114051
 30
0.0
 40
42.0
  1
400
 41
0.8000000000000015
  7
FDASTYLE1
 72
     5
 11
1642.820715743335
 21
-1004.220733114051
 31
0.0
100
AcDbText
  0
ENDBLK
  5
B0
330
AE
100
AcDbEntity
  8
0
100
AcDbBlockEnd
  0
BLOCK
  5
B2
330
B1
100
AcDbEntity
  8
0
100
AcDbBlockBegin
  2
DA_IMAGEDIMGROUP_11
 70
     0
 71
     0
 10
0.0
 20
0.0
 30
0.0
  3
DA_IMAGEDIMGROUP_11
  1

  0
LINE
  5
1F2
330
B1
100
AcDbEntity
  8
0
 62
     9
100
AcDbLine
 10
1292.420715743335
 20
-920.2207331140505
 30
0.0
 11
1292.420715743335
 21
-1122.794383149448
 31
0.0
  0
LINE
  5
1F3
330
B1
100
AcDbEntity
  8
0
 62
     9
100
AcDbLine
 10
1892.420715743335
 20
-920.2207331140505
 30
0.0
 11
1892.420715743335
 21
-1122.794383149448
 31
0.0
  0
LINE
  5
1F4
330
B1
100
AcDbEntity
  8
0
 62
     9
100
AcDbLine
 10
1292.420715743335
 20
-1110.794383149448
 30
0.0
 11
1892.420715743335
 21
-1110.794383149448
 31
0.0
  0
INSERT
  5
1F5
330
B1
100
AcDbEntity
  8
0
 62
     9
100
AcDbBlockReference
  2
_OPEN30
 10
1292.420715743335
 20
-1110.794383149448
 30
0.0
 41
36.00003345389238
 42
35.99987128774157
 50
180.0
  0
INSERT
  5
1F6
330
B1
100
AcDbEntity
  8
0
 62
     9
100
AcDbBlockReference
  2
_OPEN30
 10
1892.420715743335
 20
-1110.794383149448
 30
0.0
 41
36.00003345389238
 42
35.99987128774157
 50
360.0
  0
TEXT
  5
1F7
330
B1
100
AcDbEntity
  8
0
 62
     7
100
AcDbText
 10
1542.020715743335
 20
-1098.794383149448
 30
0.0
 40
42.0
  1
600
 41
0.8000000000000015
  7
FDASTYLE1
 72
     5
 11
1642.820715743335
 21
-1098.794383149448
 31
0.0
100
AcDbText
  0
ENDBLK
  5
B3
330
B1
100
AcDbEntity
  8
0
100
AcDbBlockEnd
  0
BLOCK
  5
B5
330
B4
100
AcDbEntity
  8
0
100
AcDbBlockBegin
  2
DC_GROUP_25
 70
     0
 71
     0
 10
0.0
 20
0.0
 30
0.0
  3
DC_GROUP_25
  1

  0
LINE
  5
1F8
330
B4
100
AcDbEntity
  8
0
 62
     3
100
AcDbLine
 10
1464.920715743335
 20
-765.8207331140503
 30
0.0
 11
1464.920715743335
 21
-770.6279127910227
 31
0.0
  0
LINE
  5
1F9
330
B4
100
AcDbEntity
  8
0
 62
     3
100
AcDbLine
 10
1461.167938993602
 20
-765.8207331140503
 30
0.0
 11
1461.167938993602
 21
-770.6279127910227
 31
0.0
  0
LINE
  5
1FA
330
B4
100
AcDbEntity
  8
0
 62
     3
100
AcDbLine
 10
1463.044327368468
 20
-771.3207331140503
 30
0.0
 11
1451.797104118201
 21
-771.3207331140503
 31
0.0
  0
LINE
  5
1FB
330
B4
100
AcDbEntity
  8
0
 62
     3
100
AcDbLine
 10
1449.920715743335
 20
-765.8207331140503
 30
0.0
 11
1449.920715743335
 21
-770.6279127910227
 31
0.0
  0
LINE
  5
1FC
330
B4
100
AcDbEntity
  8
0
 62
     3
100
AcDbLine
 10
1453.673492493067
 20
-765.8207331140503
 30
0.0
 11
1453.673492493067
 21
-770.6279127910227
 31
0.0
  0
ARC
  5
1FD
330
B4
100
AcDbEntity
  8
0
 62
     3
100
AcDbCircle
 10
1463.044327368468
 20
-768.4333803615718
 30
0.0
 40
2.887352752478486
100
AcDbArc
 50
229.4686050581028
 51
310.5313949418973
  0
ARC
  5
1FE
330
B4
100
AcDbEntity
  8
0
 62
     3
100
AcDbCircle
 10
1451.797104118201
 20
-768.4333803615718
 30
0.0
 40
2.887352752478486
100
AcDbArc
 50
229.4686050581028
 51
310.5313949418973
  0
ARC
  5
1FF
330
B4
100
AcDbEntity
  8
0
 62
     3
100
AcDbCircle
 10
1457.420715743335
 20
-760.8406117862819
 30
0.0
 40
10.48012132776833
100
AcDbArc
 50
249.0498637736406
 51
290.9501362263594
  0
LINE
  5
200
330
B4
100
AcDbEntity
  8
0
 62
     3
100
AcDbLine
 10
1448.920715743335
 20
-764.2207331140503
 30
0.0
 11
1448.920715743335
 21
-765.8207331140503
 31
0.0
  0
LINE
  5
201
330
B4
100
AcDbEntity
  8
0
 62
     3
100
AcDbLine
 10
1465.920715743335
 20
-764.2207331140503
 30
0.0
 11
1448.920715743335
 21
-764.2207331140503
 31
0.0
  0
LINE
  5
202
330
B4
100
AcDbEntity
  8
0
 62
     3
100
AcDbLine
 10
1465.920715743335
 20
-764.2207331140503
 30
0.0
 11
1465.920715743335
 21
-765.8207331140503
 31
0.0
  0
LINE
  5
203
330
B4
100
AcDbEntity
  8
0
 62
     3
100
AcDbLine
 10
1465.920715743335
 20
-765.8207331140503
 30
0.0
 11
1448.920715743335
 21
-765.8207331140503
 31
0.0
  0
ENDBLK
  5
B6
330
B4
100
AcDbEntity
  8
0
100
AcDbBlockEnd
  0
BLOCK
  5
B8
330
B7
100
AcDbEntity
  8
0
100
AcDbBlockBegin
  2
DC_GROUP_26
 70
     0
 71
     0
 10
0.0
 20
0.0
 30
0.0
  3
DC_GROUP_26
  1

  0
LINE
  5
204
330
B7
100
AcDbEntity
  8
0
 62
     3
100
AcDbLine
 10
1529.920715743335
 20
-765.8207331140503
 30
0.0
 11
1529.920715743335
 21
-770.6279127910227
 31
0.0
  0
LINE
  5
205
330
B7
100
AcDbEntity
  8
0
 62
     3
100
AcDbLine
 10
1533.673492493067
 20
-765.8207331140503
 30
0.0
 11
1533.673492493067
 21
-770.6279127910227
 31
0.0
  0
LINE
  5
206
330
B7
100
AcDbEntity
  8
0
 62
     3
100
AcDbLine
 10
1531.797104118201
 20
-771.3207331140503
 30
0.0
 11
1543.044327368468
 21
-771.3207331140503
 31
0.0
  0
LINE
  5
207
330
B7
100
AcDbEntity
  8
0
 62
     3
100
AcDbLine
 10
1544.920715743335
 20
-765.8207331140503
 30
0.0
 11
1544.920715743335
 21
-770.6279127910227
 31
0.0
  0
LINE
  5
208
330
B7
100
AcDbEntity
  8
0
 62
     3
100
AcDbLine
 10
1541.167938993602
 20
-765.8207331140503
 30
0.0
 11
1541.167938993602
 21
-770.6279127910227
 31
0.0
  0
ARC
  5
209
330
B7
100
AcDbEntity
  8
0
 62
     3
100
AcDbCircle
 10
1531.797104118201
 20
-768.4333803615718
 30
0.0
 40
2.887352752478486
100
AcDbArc
 50
229.4686050581028
 51
310.5313949418973
  0
ARC
  5
20A
330
B7
100
AcDbEntity
  8
0
 62
     3
100
AcDbCircle
 10
1543.044327368468
 20
-768.4333803615718
 30
0.0
 40
2.887352752478486
100
AcDbArc
 50
229.4686050581028
 51
310.5313949418973
  0
ARC
  5
20B
330
B7
100
AcDbEntity
  8
0
 62
     3
100
AcDbCircle
 10
1537.420715743335
 20
-760.8406117862819
 30
0.0
 40
10.48012132776833
100
AcDbArc
 50
249.0498637736406
 51
290.9501362263594
  0
LINE
  5
20C
330
B7
100
AcDbEntity
  8
0
 62
     3
100
AcDbLine
 10
1545.920715743335
 20
-764.2207331140503
 30
0.0
 11
1545.920715743335
 21
-765.8207331140503
 31
0.0
  0
LINE
  5
20D
330
B7
100
AcDbEntity
  8
0
 62
     3
100
AcDbLine
 10
1528.920715743335
 20
-764.2207331140503
 30
0.0
 11
1545.920715743335
 21
-764.2207331140503
 31
0.0
  0
LINE
  5
20E
330
B7
100
AcDbEntity
  8
0
 62
     3
100
AcDbLine
 10
1528.920715743335
 20
-764.2207331140503
 30
0.0
 11
1528.920715743335
 21
-765.8207331140503
 31
0.0
  0
LINE
  5
20F
330
B7
100
AcDbEntity
  8
0
 62
     3
100
AcDbLine
 10
1528.920715743335
 20
-765.8207331140503
 30
0.0
 11
1545.920715743335
 21
-765.8207331140503
 31
0.0
  0
ENDBLK
  5
B9
330
B7
100
AcDbEntity
  8
0
100
AcDbBlockEnd
  0
BLOCK
  5
BB
330
BA
100
AcDbEntity
  8
0
100
AcDbBlockBegin
  2
DA_IMAGEDIMGROUP_12
 70
     0
 71
     0
 10
0.0
 20
0.0
 30
0.0
  3
DA_IMAGEDIMGROUP_12
  1

  0
LINE
  5
210
330
BA
100
AcDbEntity
  8
0
 62
     9
100
AcDbLine
 10
1130.420715743335
 20
-308.2207331140504
 30
0.0
 11
972.5897693079239
 21
-308.2207331140504
 31
0.0
  0
LINE
  5
211
330
BA
100
AcDbEntity
  8
0
 62
     9
100
AcDbLine
 10
1240.420715743335
 20
-908.2207331140505
 30
0.0
 11
972.5897693079239
 21
-908.2207331140505
 31
0.0
  0
LINE
  5
212
330
BA
100
AcDbEntity
  8
0
 62
     9
100
AcDbLine
 10
1130.420715743335
 20
-108.2207331140504
 30
0.0
 11
972.5897693079239
 21
-108.2207331140504
 31
0.0
  0
LINE
  5
213
330
BA
100
AcDbEntity
  8
0
 62
     9
100
AcDbLine
 10
984.5897693079239
 20
-908.2207331140505
 30
0.0
 11
984.5897693079239
 21
-308.2207331140504
 31
0.0
  0
INSERT
  5
214
330
BA
100
AcDbEntity
  8
0
 62
     9
100
AcDbBlockReference
  2
_OPEN30
 10
984.5897693079239
 20
-908.2207331140505
 30
0.0
 41
36.00003345389238
 42
35.99987128774157
 50
270.0
  0
INSERT
  5
215
330
BA
100
AcDbEntity
  8
0
 62
     9
100
AcDbBlockReference
  2
_OPEN30
 10
984.5897693079239
 20
-308.2207331140504
 30
0.0
 41
36.00003345389238
 42
35.99987128774157
 50
90.0
  0
LINE
  5
216
330
BA
100
AcDbEntity
  8
0
 62
     9
100
AcDbLine
 10
984.5897693079239
 20
-308.2207331140504
 30
0.0
 11
984.5897693079239
 21
-108.2207331140504
 31
0.0
  0
INSERT
  5
217
330
BA
100
AcDbEntity
  8
0
 62
     9
100
AcDbBlockReference
  2
_OPEN30
 10
984.5897693079239
 20
-308.2207331140504
 30
0.0
 41
36.00003345389238
 42
35.99987128774157
 50
270.0
  0
INSERT
  5
218
330
BA
100
AcDbEntity
  8
0
 62
     9
100
AcDbBlockReference
  2
_OPEN30
 10
984.5897693079239
 20
-108.2207331140504
 30
0.0
 41
36.00003345389238
 42
35.99987128774157
 50
90.0
  0
TEXT
  5
219
330
BA
100
AcDbEntity
  8
0
 62
     7
100
AcDbText
 10
972.5897693079239
 20
-658.6207331140504
 30
0.0
 40
42.0
  1
600
 50
90.0
 41
0.7999999999999996
  7
FDASTYLE1
 72
     5
 11
972.5897693079239
 21
-557.8207331140504
 31
0.0
100
AcDbText
  0
TEXT
  5
21A
330
BA
100
AcDbEntity
  8
0
 62
     7
100
AcDbText
 10
972.5897693079239
 20
-258.6207331140503
 30
0.0
 40
42.0
  1
200
 50
90.0
 41
0.7999999999999996
  7
FDASTYLE1
 72
     5
 11
972.5897693079239
 21
-157.8207331140504
 31
0.0
100
AcDbText
  0
ENDBLK
  5
BC
330
BA
100
AcDbEntity
  8
0
100
AcDbBlockEnd
  0
BLOCK
  5
125
330
124
100
AcDbEntity
  8
0
100
AcDbBlockBegin
  2
_OPEN30
 70
     0
 71
     0
 10
0.0
 20
0.0
 30
0.0
  3
_OPEN30
  1

  0
LINE
  5
127
330
124
100
AcDbEntity
  8
0
  6
BYBLOCK
 62
     0
100
AcDbLine
 10
-1.0
 20
0.267949
 30
0.0
 11
0.0
 21
0.0
 31
0.0
  0
LINE
  5
128
330
124
100
AcDbEntity
  8
0
  6
BYBLOCK
 62
     0
100
AcDbLine
 10
0.0
 20
0.0
 30
0.0
 11
-1.0
 21
-0.267949
 31
0.0
  0
LINE
  5
129
330
124
100
AcDbEntity
  8
0
  6
BYBLOCK
 62
     0
100
AcDbLine
 10
0.0
 20
0.0
 30
0.0
 11
-1.0
 21
0.0
 31
0.0
  0
ENDBLK
  5
126
330
124
100
AcDbEntity
  8
0
100
AcDbBlockEnd
  0
ENDSEC
  0
SECTION
  2
ENTITIES
  0
INSERT
  5
21B
330
1F
100
AcDbEntity
  8
0
  6
CONTINUOUS
100
AcDbBlockReference
  2
DC_GROUP_1
 10
0.0
 20
0.0
 30
0.0
  0
INSERT
  5
21C
330
1F
100
AcDbEntity
  8
0
  6
CONTINUOUS
100
AcDbBlockReference
  2
DC_GROUP_6
 10
0.0
 20
0.0
 30
0.0
  0
INSERT
  5
21D
330
1F
100
AcDbEntity
  8
0
  6
CONTINUOUS
100
AcDbBlockReference
  2
DC_GROUP_7
 10
0.0
 20
0.0
 30
0.0
  0
INSERT
  5
21E
330
1F
100
AcDbEntity
  8
0
  6
CONTINUOUS
100
AcDbBlockReference
  2
DC_GROUP_8
 10
0.0
 20
0.0
 30
0.0
  0
INSERT
  5
21F
330
1F
100
AcDbEntity
  8
0
  6
CONTINUOUS
100
AcDbBlockReference
  2
DC_GROUP_9
 10
0.0
 20
0.0
 30
0.0
  0
INSERT
  5
220
330
1F
100
AcDbEntity
  8
0
  6
CONTINUOUS
100
AcDbBlockReference
  2
DC_GROUP_10
 10
0.0
 20
0.0
 30
0.0
  0
INSERT
  5
221
330
1F
100
AcDbEntity
  8
0
  6
CONTINUOUS
100
AcDbBlockReference
  2
DC_GROUP_11
 10
0.0
 20
0.0
 30
0.0
  0
INSERT
  5
222
330
1F
100
AcDbEntity
  8
0
  6
CONTINUOUS
100
AcDbBlockReference
  2
DA_IMAGEDIMGROUP_1
 10
0.0
 20
0.0
 30
0.0
  0
INSERT
  5
223
330
1F
100
AcDbEntity
  8
0
  6
CONTINUOUS
100
AcDbBlockReference
  2
DA_IMAGEDIMGROUP_2
 10
0.0
 20
0.0
 30
0.0
  0
INSERT
  5
224
330
1F
100
AcDbEntity
  8
0
  6
CONTINUOUS
100
AcDbBlockReference
  2
DA_IMAGEDIMGROUP_3
 10
0.0
 20
0.0
 30
0.0
  0
INSERT
  5
225
330
1F
100
AcDbEntity
  8
0
  6
CONTINUOUS
100
AcDbBlockReference
  2
DA_IMAGEDIMGROUP_4
 10
0.0
 20
0.0
 30
0.0
  0
INSERT
  5
226
330
1F
100
AcDbEntity
  8
0
  6
CONTINUOUS
100
AcDbBlockReference
  2
DC_GROUP_12
 10
0.0
 20
0.0
 30
0.0
  0
INSERT
  5
227
330
1F
100
AcDbEntity
  8
0
  6
CONTINUOUS
100
AcDbBlockReference
  2
DC_GROUP_13
 10
0.0
 20
0.0
 30
0.0
  0
INSERT
  5
228
330
1F
100
AcDbEntity
  8
0
  6
CONTINUOUS
100
AcDbBlockReference
  2
DC_GROUP_14
 10
0.0
 20
0.0
 30
0.0
  0
INSERT
  5
229
330
1F
100
AcDbEntity
  8
0
  6
CONTINUOUS
100
AcDbBlockReference
  2
DC_GROUP_15
 10
0.0
 20
0.0
 30
0.0
  0
INSERT
  5
22A
330
1F
100
AcDbEntity
  8
0
  6
CONTINUOUS
100
AcDbBlockReference
  2
DA_IMAGEDIMGROUP_5
 10
0.0
 20
0.0
 30
0.0
  0
INSERT
  5
22B
330
1F
100
AcDbEntity
  8
0
  6
CONTINUOUS
100
AcDbBlockReference
  2
DA_IMAGEDIMGROUP_6
 10
0.0
 20
0.0
 30
0.0
  0
INSERT
  5
22C
330
1F
100
AcDbEntity
  8
0
  6
CONTINUOUS
100
AcDbBlockReference
  2
DA_IMAGEDIMGROUP_7
 10
0.0
 20
0.0
 30
0.0
  0
INSERT
  5
22D
330
1F
100
AcDbEntity
  8
0
  6
CONTINUOUS
100
AcDbBlockReference
  2
DA_IMAGEDIMGROUP_8
 10
0.0
 20
0.0
 30
0.0
  0
INSERT
  5
22E
330
1F
100
AcDbEntity
  8
0
  6
CONTINUOUS
100
AcDbBlockReference
  2
DA_IMAGEDIMGROUP_9
 10
0.0
 20
0.0
 30
0.0
  0
INSERT
  5
22F
330
1F
100
AcDbEntity
  8
0
  6
CONTINUOUS
100
AcDbBlockReference
  2
DC_GROUP_19
 10
0.0
 20
0.0
 30
0.0
  0
INSERT
  5
230
330
1F
100
AcDbEntity
  8
0
  6
CONTINUOUS
100
AcDbBlockReference
  2
DC_GROUP_20
 10
0.0
 20
0.0
 30
0.0
  0
INSERT
  5
231
330
1F
100
AcDbEntity
  8
0
  6
CONTINUOUS
100
AcDbBlockReference
  2
DC_GROUP_21
 10
0.0
 20
0.0
 30
0.0
  0
INSERT
  5
232
330
1F
100
AcDbEntity
  8
0
  6
CONTINUOUS
100
AcDbBlockReference
  2
DC_GROUP_22
 10
0.0
 20
0.0
 30
0.0
  0
INSERT
  5
233
330
1F
100
AcDbEntity
  8
0
  6
CONTINUOUS
100
AcDbBlockReference
  2
DC_GROUP_23
 10
0.0
 20
0.0
 30
0.0
  0
INSERT
  5
234
330
1F
100
AcDbEntity
  8
0
  6
CONTINUOUS
100
AcDbBlockReference
  2
DC_GROUP_24
 10
0.0
 20
0.0
 30
0.0
  0
INSERT
  5
235
330
1F
100
AcDbEntity
  8
0
  6
CONTINUOUS
100
AcDbBlockReference
  2
DA_IMAGEDIMGROUP_10
 10
0.0
 20
0.0
 30
0.0
  0
INSERT
  5
236
330
1F
100
AcDbEntity
  8
0
  6
CONTINUOUS
100
AcDbBlockReference
  2
DA_IMAGEDIMGROUP_11
 10
0.0
 20
0.0
 30
0.0
  0
INSERT
  5
237
330
1F
100
AcDbEntity
  8
0
  6
CONTINUOUS
100
AcDbBlockReference
  2
DC_GROUP_25
 10
0.0
 20
0.0
 30
0.0
  0
INSERT
  5
238
330
1F
100
AcDbEntity
  8
0
  6
CONTINUOUS
100
AcDbBlockReference
  2
DC_GROUP_26
 10
0.0
 20
0.0
 30
0.0
  0
INSERT
  5
239
330
1F
100
AcDbEntity
  8
0
  6
CONTINUOUS
100
AcDbBlockReference
  2
DA_IMAGEDIMGROUP_12
 10
0.0
 20
0.0
 30
0.0
  0
LINE
  5
23A
330
1F
100
AcDbEntity
  8
0
 62
     3
100
AcDbLine
 10
-1807.579284256665
 20
291.7792668859497
 30
0.0
 11
-7.579284256665119
 21
291.7792668859497
 31
0.0
  0
LINE
  5
23B
330
1F
100
AcDbEntity
  8
0
 62
     3
100
AcDbLine
 10
-7.579284256665119
 20
1191.77926688595
 30
0.0
 11
-1807.579284256665
 21
1191.77926688595
 31
0.0
  0
LINE
  5
23C
330
1F
100
AcDbEntity
  8
0
 62
     3
100
AcDbLine
 10
-1807.579284256665
 20
1191.77926688595
 30
0.0
 11
-1807.579284256665
 21
291.7792668859497
 31
0.0
  0
LINE
  5
23D
330
1F
100
AcDbEntity
  8
0
 62
     3
100
AcDbLine
 10
-7.579284256665119
 20
291.7792668859497
 30
0.0
 11
-7.579284256665119
 21
1191.77926688595
 31
0.0
  0
LINE
  5
23E
330
1F
100
AcDbEntity
  8
0
 62
     3
100
AcDbLine
 10
-1807.579284256665
 20
-108.2207331140504
 30
0.0
 11
-7.579284256665119
 21
-108.2207331140504
 31
0.0
  0
LINE
  5
23F
330
1F
100
AcDbEntity
  8
0
 62
     3
100
AcDbLine
 10
-1807.579284256665
 20
-308.2207331140504
 30
0.0
 11
-7.579284256665119
 21
-308.2207331140504
 31
0.0
  0
LINE
  5
240
330
1F
100
AcDbEntity
  8
0
 62
     3
100
AcDbLine
 10
-1807.579284256665
 20
-108.2207331140504
 30
0.0
 11
-1807.579284256665
 21
-308.2207331140504
 31
0.0
  0
LINE
  5
241
330
1F
100
AcDbEntity
  8
0
 62
     3
100
AcDbLine
 10
-7.579284256665119
 20
-108.2207331140504
 30
0.0
 11
-7.579284256665119
 21
-308.2207331140504
 31
0.0
  0
LINE
  5
242
330
1F
100
AcDbEntity
  8
0
 62
     3
100
AcDbLine
 10
-1407.579284256665
 20
-750.2207331140503
 30
0.0
 11
-407.579284256665
 21
-750.2207331140503
 31
0.0
  0
LINE
  5
243
330
1F
100
AcDbEntity
  8
0
 62
     3
100
AcDbLine
 10
-1407.579284256665
 20
-625.2207331140503
 30
0.0
 11
-407.579284256665
 21
-625.2207331140503
 31
0.0
  0
LINE
  5
244
330
1F
100
AcDbEntity
  8
0
 62
     3
100
AcDbLine
 10
-1407.579284256665
 20
-564.2207331140503
 30
0.0
 11
-407.579284256665
 21
-564.2207331140503
 31
0.0
  0
LINE
  5
245
330
1F
100
AcDbEntity
  8
0
 62
     3
100
AcDbLine
 10
-1407.579284256665
 20
-439.2207331140504
 30
0.0
 11
-407.579284256665
 21
-439.2207331140504
 31
0.0
  0
LINE
  5
246
330
1F
100
AcDbEntity
  8
0
 62
     3
100
AcDbLine
 10
-875.5792842566625
 20
-348.2207331140504
 30
0.0
 11
-853.5792842566625
 21
-370.2207331140504
 31
0.0
  0
LINE
  5
247
330
1F
100
AcDbEntity
  8
0
 62
     3
100
AcDbLine
 10
-1357.579284256665
 20
-750.2207331140503
 30
0.0
 11
-1357.579284256665
 21
-759.2207331140503
 31
0.0
  0
LINE
  5
248
330
1F
100
AcDbEntity
  8
0
 62
     3
100
AcDbLine
 10
-1247.579284256665
 20
-759.2207331140503
 30
0.0
 11
-1357.579284256665
 21
-759.2207331140503
 31
0.0
  0
LINE
  5
249
330
1F
100
AcDbEntity
  8
0
 62
     3
100
AcDbLine
 10
-1247.579284256665
 20
-750.2207331140503
 30
0.0
 11
-1247.579284256665
 21
-759.2207331140503
 31
0.0
  0
LINE
  5
24A
330
1F
100
AcDbEntity
  8
0
 62
     3
100
AcDbLine
 10
-1547.579284256666
 20
-324.2207331140505
 30
0.0
 11
-1547.579284256666
 21
-345.2207331140497
 31
0.0
  0
LINE
  5
24B
330
1F
100
AcDbEntity
  8
0
 62
     3
100
AcDbLine
 10
-1467.579284256665
 20
-324.2207331140505
 30
0.0
 11
-1467.579284256665
 21
-345.2207331140496
 31
0.0
  0
LINE
  5
24C
330
1F
100
AcDbEntity
  8
0
 62
     3
100
AcDbLine
 10
-1431.329284256665
 20
-350.220733114063
 30
0.0
 11
-1431.329284256665
 21
-345.2207331140493
 31
0.0
  0
LINE
  5
24D
330
1F
100
AcDbEntity
  8
0
 62
     3
100
AcDbLine
 10
-1583.829284256666
 20
-350.220733114063
 30
0.0
 11
-1583.829284256666
 21
-345.2207331140498
 31
0.0
  0
LINE
  5
24E
330
1F
100
AcDbEntity
  8
0
 62
     3
100
AcDbLine
 10
-1583.829284256666
 20
-345.2207331140498
 30
0.0
 11
-1431.329284256665
 21
-345.2207331140493
 31
0.0
  0
LINE
  5
24F
330
1F
100
AcDbEntity
  8
0
 62
     3
100
AcDbLine
 10
-1384.579284256665
 20
-390.220733114063
 30
0.0
 11
-1384.579284256665
 21
-394.220733114063
 31
0.0
  0
LINE
  5
250
330
1F
100
AcDbEntity
  8
0
 62
     3
100
AcDbLine
 10
-1630.579284256666
 20
-390.220733114063
 30
0.0
 11
-1630.579284256666
 21
-394.220733114063
 31
0.0
  0
LINE
  5
251
330
1F
100
AcDbEntity
  8
0
 62
     3
100
AcDbLine
 10
-1632.579284256666
 20
-390.220733114063
 30
0.0
 11
-1382.579284256665
 21
-390.220733114063
 31
0.0
  0
LINE
  5
252
330
1F
100
AcDbEntity
  8
0
 62
     3
100
AcDbLine
 10
-1632.579284256666
 20
-350.220733114063
 30
0.0
 11
-1632.579284256666
 21
-390.220733114063
 31
0.0
  0
LINE
  5
253
330
1F
100
AcDbEntity
  8
0
 62
     3
100
AcDbLine
 10
-1382.579284256665
 20
-350.220733114063
 30
0.0
 11
-1382.579284256665
 21
-390.220733114063
 31
0.0
  0
LINE
  5
254
330
1F
100
AcDbEntity
  8
0
 62
     3
100
AcDbLine
 10
-1382.579284256665
 20
-350.220733114063
 30
0.0
 11
-1632.579284256666
 21
-350.220733114063
 31
0.0
  0
LINE
  5
255
330
1F
100
AcDbEntity
  8
0
 62
     3
100
AcDbLine
 10
-1382.579284256665
 20
-394.2207331140625
 30
0.0
 11
-1632.579284256666
 21
-394.2207331140621
 31
0.0
  0
LINE
  5
256
330
1F
100
AcDbEntity
  8
0
 62
     3
100
AcDbLine
 10
-1632.579284256666
 20
-419.2207331140621
 30
0.0
 11
-1382.579284256665
 21
-419.2207331140625
 31
0.0
  0
LINE
  5
257
330
1F
100
AcDbEntity
  8
0
 62
     3
100
AcDbLine
 10
-1382.579284256665
 20
-419.2207331140623
 30
0.0
 11
-1382.579284256665
 21
-394.2207331140625
 31
0.0
  0
LINE
  5
258
330
1F
100
AcDbEntity
  8
0
 62
     3
100
AcDbLine
 10
-1632.579284256666
 20
-394.2207331140621
 30
0.0
 11
-1632.579284256666
 21
-419.2207331140621
 31
0.0
  0
LINE
  5
259
330
1F
100
AcDbEntity
  8
0
 62
     3
100
AcDbLine
 10
-1632.579284256666
 20
-324.2207331140505
 30
0.0
 11
-1382.579284256665
 21
-324.2207331140505
 31
0.0
  0
LINE
  5
25A
330
1F
100
AcDbEntity
  8
0
 62
     3
100
AcDbLine
 10
-1632.579284256666
 20
-308.2207331140505
 30
0.0
 11
-1632.579284256666
 21
-324.2207331140505
 31
0.0
  0
LINE
  5
25B
330
1F
100
AcDbEntity
  8
0
 62
     3
100
AcDbLine
 10
-1382.579284256665
 20
-324.2207331140505
 30
0.0
 11
-1382.579284256665
 21
-308.2207331140505
 31
0.0
  0
LINE
  5
25C
330
1F
100
AcDbEntity
  8
0
 62
     3
100
AcDbLine
 10
-1607.579284256666
 20
-419.2207331140629
 30
0.0
 11
-1607.579284256666
 21
-814.2207331140626
 31
0.0
  0
LINE
  5
25D
330
1F
100
AcDbEntity
  8
0
 62
     3
100
AcDbLine
 10
-1407.579284256665
 20
-419.2207331140629
 30
0.0
 11
-1407.579284256665
 21
-814.2207331140626
 31
0.0
  0
LINE
  5
25E
330
1F
100
AcDbEntity
  8
0
 62
     3
100
AcDbLine
 10
-1607.579284256666
 20
-814.2207331140626
 30
0.0
 11
-1407.579284256665
 21
-814.2207331140626
 31
0.0
  0
LINE
  5
25F
330
1F
100
AcDbEntity
  8
0
 62
     3
100
AcDbLine
 10
-1547.579284256666
 20
-900.2207331140505
 30
0.0
 11
-1547.579284256666
 21
-908.2207331140505
 31
0.0
  0
LINE
  5
260
330
1F
100
AcDbEntity
  8
0
 62
     3
100
AcDbLine
 10
-1467.579284256665
 20
-908.2207331140505
 30
0.0
 11
-1547.579284256666
 21
-908.2207331140505
 31
0.0
  0
LINE
  5
261
330
1F
100
AcDbEntity
  8
0
 62
     3
100
AcDbLine
 10
-1547.579284256666
 20
-900.2207331140505
 30
0.0
 11
-1467.579284256665
 21
-900.2207331140505
 31
0.0
  0
LINE
  5
262
330
1F
100
AcDbEntity
  8
0
 62
     3
100
AcDbLine
 10
-1467.579284256665
 20
-900.2207331140505
 30
0.0
 11
-1467.579284256665
 21
-908.2207331140505
 31
0.0
  0
LINE
  5
263
330
1F
100
AcDbEntity
  8
0
 62
     3
100
AcDbLine
 10
-1547.579284256666
 20
-900.2207331140505
 30
0.0
 11
-1530.079284256666
 21
-885.2207331140505
 31
0.0
  0
LINE
  5
264
330
1F
100
AcDbEntity
  8
0
 62
     3
100
AcDbLine
 10
-1485.079284256665
 20
-885.2207331140505
 30
0.0
 11
-1467.579284256665
 21
-900.2207331140505
 31
0.0
  0
LINE
  5
265
330
1F
100
AcDbEntity
  8
0
 62
     3
100
AcDbLine
 10
-1530.079284256666
 20
-885.2207331140505
 30
0.0
 11
-1485.079284256665
 21
-885.2207331140505
 31
0.0
  0
LINE
  5
266
330
1F
100
AcDbEntity
  8
0
 62
     3
100
AcDbLine
 10
-1481.029284256664
 20
-865.2207331140505
 30
0.0
 11
-1534.129284256665
 21
-865.2207331140505
 31
0.0
  0
LINE
  5
267
330
1F
100
AcDbEntity
  8
0
 62
     3
100
AcDbLine
 10
-1487.668812352346
 20
-885.2207331140505
 30
0.0
 11
-1527.489756160984
 21
-885.2207331140505
 31
0.0
  0
ARC
  5
268
330
1F
100
AcDbEntity
  8
0
 62
     3
100
AcDbCircle
 10
-1487.668812352346
 20
-875.5166488230366
 30
0.0
 40
9.704084291014084
100
AcDbArc
 50
226.8273275017968
 51
313.1726724982032
  0
ARC
  5
269
330
1F
100
AcDbEntity
  8
0
 62
     3
100
AcDbCircle
 10
-1527.489756160984
 20
-875.5166488230366
 30
0.0
 40
9.704084291014084
100
AcDbArc
 50
226.8273275017968
 51
313.1726724982032
  0
ARC
  5
26A
330
1F
100
AcDbEntity
  8
0
 62
     3
100
AcDbCircle
 10
-1507.579284256665
 20
-850.3858066600362
 30
0.0
 40
34.83492645401438
100
AcDbArc
 50
247.6064304957075
 51
292.3935695042925
  0
LINE
  5
26B
330
1F
100
AcDbEntity
  8
0
 62
     3
100
AcDbLine
 10
-1534.129284256665
 20
-865.2207331140505
 30
0.0
 11
-1534.129284256665
 21
-882.5937893892378
 31
0.0
  0
LINE
  5
26C
330
1F
100
AcDbEntity
  8
0
 62
     3
100
AcDbLine
 10
-1520.850228065304
 20
-865.2207331140505
 30
0.0
 11
-1520.850228065304
 21
-882.5937893892378
 31
0.0
  0
LINE
  5
26D
330
1F
100
AcDbEntity
  8
0
 62
     3
100
AcDbLine
 10
-1494.308340448027
 20
-882.5937893892378
 30
0.0
 11
-1494.308340448027
 21
-865.2207331140505
 31
0.0
  0
LINE
  5
26E
330
1F
100
AcDbEntity
  8
0
 62
     3
100
AcDbLine
 10
-1481.029284256664
 20
-865.2207331140505
 30
0.0
 11
-1481.029284256664
 21
-882.5937893892378
 31
0.0
  0
LINE
  5
26F
330
1F
100
AcDbEntity
  8
0
 62
     3
100
AcDbLine
 10
-1481.029284256664
 20
-814.2207331140626
 30
0.0
 11
-1481.029284256664
 21
-830.5937893892492
 31
0.0
  0
LINE
  5
270
330
1F
100
AcDbEntity
  8
0
 62
     3
100
AcDbLine
 10
-1494.308340448027
 20
-830.5937893892492
 30
0.0
 11
-1494.308340448027
 21
-814.2207331140626
 31
0.0
  0
LINE
  5
271
330
1F
100
AcDbEntity
  8
0
 62
     3
100
AcDbLine
 10
-1487.668812352346
 20
-833.2207331140619
 30
0.0
 11
-1527.489756160984
 21
-833.2207331140619
 31
0.0
  0
LINE
  5
272
330
1F
100
AcDbEntity
  8
0
 62
     3
100
AcDbLine
 10
-1534.129284256665
 20
-814.2207331140626
 30
0.0
 11
-1534.129284256665
 21
-830.5937893892492
 31
0.0
  0
LINE
  5
273
330
1F
100
AcDbEntity
  8
0
 62
     3
100
AcDbLine
 10
-1520.850228065304
 20
-814.2207331140626
 30
0.0
 11
-1520.850228065304
 21
-830.5937893892492
 31
0.0
  0
ARC
  5
274
330
1F
100
AcDbEntity
  8
0
 62
     3
100
AcDbCircle
 10
-1487.668812352346
 20
-823.5166488230479
 30
0.0
 40
9.704084291014084
100
AcDbArc
 50
226.8273275017968
 51
313.1726724982032
  0
ARC
  5
275
330
1F
100
AcDbEntity
  8
0
 62
     3
100
AcDbCircle
 10
-1527.489756160984
 20
-823.5166488230479
 30
0.0
 40
9.704084291014084
100
AcDbArc
 50
226.8273275017968
 51
313.1726724982032
  0
ARC
  5
276
330
1F
100
AcDbEntity
  8
0
 62
     3
100
AcDbCircle
 10
-1507.579284256665
 20
-798.3858066600476
 30
0.0
 40
34.83492645401438
100
AcDbArc
 50
247.6064304957075
 51
292.3935695042925
  0
LINE
  5
277
330
1F
100
AcDbEntity
  8
0
 62
     3
100
AcDbLine
 10
-1485.079284256665
 20
-885.2207331140507
 30
0.0
 11
-1527.489756160984
 21
-885.2207331140507
 31
0.0
  0
LINE
  5
278
330
1F
100
AcDbEntity
  8
0
 62
     3
100
AcDbLine
 10
-267.5792842566648
 20
-324.2207331140505
 30
0.0
 11
-267.5792842566648
 21
-345.2207331140497
 31
0.0
  0
LINE
  5
279
330
1F
100
AcDbEntity
  8
0
 62
     3
100
AcDbLine
 10
-347.579284256665
 20
-324.2207331140505
 30
0.0
 11
-347.579284256665
 21
-345.2207331140496
 31
0.0
  0
LINE
  5
27A
330
1F
100
AcDbEntity
  8
0
 62
     3
100
AcDbLine
 10
-383.829284256665
 20
-350.220733114063
 30
0.0
 11
-383.829284256665
 21
-345.2207331140493
 31
0.0
  0
LINE
  5
27B
330
1F
100
AcDbEntity
  8
0
 62
     3
100
AcDbLine
 10
-231.3292842566648
 20
-350.220733114063
 30
0.0
 11
-231.3292842566648
 21
-345.2207331140498
 31
0.0
  0
LINE
  5
27C
330
1F
100
AcDbEntity
  8
0
 62
     3
100
AcDbLine
 10
-231.3292842566648
 20
-345.2207331140498
 30
0.0
 11
-383.829284256665
 21
-345.2207331140493
 31
0.0
  0
LINE
  5
27D
330
1F
100
AcDbEntity
  8
0
 62
     3
100
AcDbLine
 10
-430.579284256665
 20
-390.220733114063
 30
0.0
 11
-430.579284256665
 21
-394.220733114063
 31
0.0
  0
LINE
  5
27E
330
1F
100
AcDbEntity
  8
0
 62
     3
100
AcDbLine
 10
-184.5792842566648
 20
-390.220733114063
 30
0.0
 11
-184.5792842566648
 21
-394.220733114063
 31
0.0
  0
LINE
  5
27F
330
1F
100
AcDbEntity
  8
0
 62
     3
100
AcDbLine
 10
-182.5792842566648
 20
-390.220733114063
 30
0.0
 11
-432.579284256665
 21
-390.220733114063
 31
0.0
  0
LINE
  5
280
330
1F
100
AcDbEntity
  8
0
 62
     3
100
AcDbLine
 10
-182.5792842566648
 20
-350.220733114063
 30
0.0
 11
-182.5792842566648
 21
-390.220733114063
 31
0.0
  0
LINE
  5
281
330
1F
100
AcDbEntity
  8
0
 62
     3
100
AcDbLine
 10
-432.579284256665
 20
-350.220733114063
 30
0.0
 11
-432.579284256665
 21
-390.220733114063
 31
0.0
  0
LINE
  5
282
330
1F
100
AcDbEntity
  8
0
 62
     3
100
AcDbLine
 10
-432.579284256665
 20
-350.220733114063
 30
0.0
 11
-182.5792842566648
 21
-350.220733114063
 31
0.0
  0
LINE
  5
283
330
1F
100
AcDbEntity
  8
0
 62
     3
100
AcDbLine
 10
-432.579284256665
 20
-394.2207331140625
 30
0.0
 11
-182.5792842566648
 21
-394.2207331140621
 31
0.0
  0
LINE
  5
284
330
1F
100
AcDbEntity
  8
0
 62
     3
100
AcDbLine
 10
-182.5792842566648
 20
-419.2207331140621
 30
0.0
 11
-432.579284256665
 21
-419.2207331140625
 31
0.0
  0
LINE
  5
285
330
1F
100
AcDbEntity
  8
0
 62
     3
100
AcDbLine
 10
-432.579284256665
 20
-419.2207331140623
 30
0.0
 11
-432.579284256665
 21
-394.2207331140625
 31
0.0
  0
LINE
  5
286
330
1F
100
AcDbEntity
  8
0
 62
     3
100
AcDbLine
 10
-182.5792842566648
 20
-394.2207331140621
 30
0.0
 11
-182.5792842566648
 21
-419.2207331140621
 31
0.0
  0
LINE
  5
287
330
1F
100
AcDbEntity
  8
0
 62
     3
100
AcDbLine
 10
-182.5792842566648
 20
-324.2207331140505
 30
0.0
 11
-432.579284256665
 21
-324.2207331140505
 31
0.0
  0
LINE
  5
288
330
1F
100
AcDbEntity
  8
0
 62
     3
100
AcDbLine
 10
-182.5792842566648
 20
-308.2207331140505
 30
0.0
 11
-182.5792842566648
 21
-324.2207331140505
 31
0.0
  0
LINE
  5
289
330
1F
100
AcDbEntity
  8
0
 62
     3
100
AcDbLine
 10
-432.579284256665
 20
-324.2207331140505
 30
0.0
 11
-432.579284256665
 21
-308.2207331140505
 31
0.0
  0
LINE
  5
28A
330
1F
100
AcDbEntity
  8
0
 62
     3
100
AcDbLine
 10
-207.5792842566648
 20
-419.2207331140629
 30
0.0
 11
-207.5792842566648
 21
-814.2207331140626
 31
0.0
  0
LINE
  5
28B
330
1F
100
AcDbEntity
  8
0
 62
     3
100
AcDbLine
 10
-407.579284256665
 20
-419.2207331140629
 30
0.0
 11
-407.579284256665
 21
-814.2207331140626
 31
0.0
  0
LINE
  5
28C
330
1F
100
AcDbEntity
  8
0
 62
     3
100
AcDbLine
 10
-207.5792842566648
 20
-814.2207331140626
 30
0.0
 11
-407.579284256665
 21
-814.2207331140626
 31
0.0
  0
LINE
  5
28D
330
1F
100
AcDbEntity
  8
0
 62
     3
100
AcDbLine
 10
-267.5792842566648
 20
-900.2207331140505
 30
0.0
 11
-267.5792842566648
 21
-908.2207331140505
 31
0.0
  0
LINE
  5
28E
330
1F
100
AcDbEntity
  8
0
 62
     3
100
AcDbLine
 10
-347.579284256665
 20
-908.2207331140505
 30
0.0
 11
-267.5792842566648
 21
-908.2207331140505
 31
0.0
  0
LINE
  5
28F
330
1F
100
AcDbEntity
  8
0
 62
     3
100
AcDbLine
 10
-267.5792842566648
 20
-900.2207331140505
 30
0.0
 11
-347.579284256665
 21
-900.2207331140505
 31
0.0
  0
LINE
  5
290
330
1F
100
AcDbEntity
  8
0
 62
     3
100
AcDbLine
 10
-347.579284256665
 20
-900.2207331140505
 30
0.0
 11
-347.579284256665
 21
-908.2207331140505
 31
0.0
  0
LINE
  5
291
330
1F
100
AcDbEntity
  8
0
 62
     3
100
AcDbLine
 10
-267.5792842566648
 20
-900.2207331140505
 30
0.0
 11
-285.0792842566648
 21
-885.2207331140505
 31
0.0
  0
LINE
  5
292
330
1F
100
AcDbEntity
  8
0
 62
     3
100
AcDbLine
 10
-330.079284256665
 20
-885.2207331140505
 30
0.0
 11
-347.579284256665
 21
-900.2207331140505
 31
0.0
  0
LINE
  5
293
330
1F
100
AcDbEntity
  8
0
 62
     3
100
AcDbLine
 10
-285.0792842566648
 20
-885.2207331140505
 30
0.0
 11
-330.079284256665
 21
-885.2207331140505
 31
0.0
  0
LINE
  5
294
330
1F
100
AcDbEntity
  8
0
 62
     3
100
AcDbLine
 10
-334.1292842566661
 20
-865.2207331140505
 30
0.0
 11
-281.0292842566655
 21
-865.2207331140505
 31
0.0
  0
LINE
  5
295
330
1F
100
AcDbEntity
  8
0
 62
     3
100
AcDbLine
 10
-327.4897561609839
 20
-885.2207331140505
 30
0.0
 11
-287.6688123523459
 21
-885.2207331140505
 31
0.0
  0
ARC
  5
296
330
1F
100
AcDbEntity
  8
0
 62
     3
100
AcDbCircle
 10
-327.4897561609839
 20
-875.5166488230366
 30
0.0
 40
9.704084291014084
100
AcDbArc
 50
226.8273275017968
 51
313.1726724982032
  0
ARC
  5
297
330
1F
100
AcDbEntity
  8
0
 62
     3
100
AcDbCircle
 10
-287.6688123523459
 20
-875.5166488230366
 30
0.0
 40
9.704084291014084
100
AcDbArc
 50
226.8273275017968
 51
313.1726724982032
  0
ARC
  5
298
330
1F
100
AcDbEntity
  8
0
 62
     3
100
AcDbCircle
 10
-307.579284256665
 20
-850.3858066600362
 30
0.0
 40
34.83492645401438
100
AcDbArc
 50
247.6064304957075
 51
292.3935695042925
  0
LINE
  5
299
330
1F
100
AcDbEntity
  8
0
 62
     3
100
AcDbLine
 10
-281.0292842566655
 20
-865.2207331140505
 30
0.0
 11
-281.0292842566655
 21
-882.5937893892378
 31
0.0
  0
LINE
  5
29A
330
1F
100
AcDbEntity
  8
0
 62
     3
100
AcDbLine
 10
-294.3083404480262
 20
-865.2207331140505
 30
0.0
 11
-294.3083404480262
 21
-882.5937893892378
 31
0.0
  0
LINE
  5
29B
330
1F
100
AcDbEntity
  8
0
 62
     3
100
AcDbLine
 10
-320.8502280653036
 20
-882.5937893892378
 30
0.0
 11
-320.8502280653036
 21
-865.2207331140505
 31
0.0
  0
LINE
  5
29C
330
1F
100
AcDbEntity
  8
0
 62
     3
100
AcDbLine
 10
-334.1292842566661
 20
-865.2207331140505
 30
0.0
 11
-334.1292842566661
 21
-882.5937893892378
 31
0.0
  0
LINE
  5
29D
330
1F
100
AcDbEntity
  8
0
 62
     3
100
AcDbLine
 10
-334.1292842566661
 20
-814.2207331140626
 30
0.0
 11
-334.1292842566661
 21
-830.5937893892492
 31
0.0
  0
LINE
  5
29E
330
1F
100
AcDbEntity
  8
0
 62
     3
100
AcDbLine
 10
-320.8502280653036
 20
-830.5937893892492
 30
0.0
 11
-320.8502280653036
 21
-814.2207331140626
 31
0.0
  0
LINE
  5
29F
330
1F
100
AcDbEntity
  8
0
 62
     3
100
AcDbLine
 10
-327.4897561609839
 20
-833.2207331140619
 30
0.0
 11
-287.6688123523459
 21
-833.2207331140619
 31
0.0
  0
LINE
  5
2A0
330
1F
100
AcDbEntity
  8
0
 62
     3
100
AcDbLine
 10
-281.0292842566655
 20
-814.2207331140626
 30
0.0
 11
-281.0292842566655
 21
-830.5937893892492
 31
0.0
  0
LINE
  5
2A1
330
1F
100
AcDbEntity
  8
0
 62
     3
100
AcDbLine
 10
-294.3083404480262
 20
-814.2207331140626
 30
0.0
 11
-294.3083404480262
 21
-830.5937893892492
 31
0.0
  0
ARC
  5
2A2
330
1F
100
AcDbEntity
  8
0
 62
     3
100
AcDbCircle
 10
-327.4897561609839
 20
-823.5166488230479
 30
0.0
 40
9.704084291014084
100
AcDbArc
 50
226.8273275017968
 51
313.1726724982032
  0
ARC
  5
2A3
330
1F
100
AcDbEntity
  8
0
 62
     3
100
AcDbCircle
 10
-287.6688123523459
 20
-823.5166488230479
 30
0.0
 40
9.704084291014084
100
AcDbArc
 50
226.8273275017968
 51
313.1726724982032
  0
ARC
  5
2A4
330
1F
100
AcDbEntity
  8
0
 62
     3
100
AcDbCircle
 10
-307.579284256665
 20
-798.3858066600476
 30
0.0
 40
34.83492645401438
100
AcDbArc
 50
247.6064304957075
 51
292.3935695042925
  0
LINE
  5
2A5
330
1F
100
AcDbEntity
  8
0
 62
     3
100
AcDbLine
 10
-330.0792842566652
 20
-885.2207331140507
 30
0.0
 11
-287.6688123523459
 21
-885.2207331140507
 31
0.0
  0
LINE
  5
2A6
330
1F
100
AcDbEntity
  8
0
 62
     3
100
AcDbLine
 10
-457.579284256665
 20
-750.2207331140503
 30
0.0
 11
-457.579284256665
 21
-759.2207331140503
 31
0.0
  0
LINE
  5
2A7
330
1F
100
AcDbEntity
  8
0
 62
     3
100
AcDbLine
 10
-567.579284256665
 20
-759.2207331140503
 30
0.0
 11
-457.579284256665
 21
-759.2207331140503
 31
0.0
  0
LINE
  5
2A8
330
1F
100
AcDbEntity
  8
0
 62
     3
100
AcDbLine
 10
-567.579284256665
 20
-750.2207331140503
 30
0.0
 11
-567.579284256665
 21
-759.2207331140503
 31
0.0
  0
LINE
  5
2A9
330
1F
100
AcDbEntity
  8
0
 62
     3
100
AcDbLine
 10
1142.420715743335
 20
-108.2207331140504
 30
0.0
 11
2042.420715743335
 21
-108.2207331140504
 31
0.0
  0
LINE
  5
2AA
330
1F
100
AcDbEntity
  8
0
 62
     3
100
AcDbLine
 10
1142.420715743335
 20
-308.2207331140504
 30
0.0
 11
2042.420715743335
 21
-308.2207331140504
 31
0.0
  0
LINE
  5
2AB
330
1F
100
AcDbEntity
  8
0
 62
     3
100
AcDbLine
 10
1142.420715743335
 20
-108.2207331140504
 30
0.0
 11
1142.420715743335
 21
-308.2207331140504
 31
0.0
  0
LINE
  5
2AC
330
1F
100
AcDbEntity
  8
0
 62
     3
100
AcDbLine
 10
2042.420715743335
 20
-108.2207331140504
 30
0.0
 11
2042.420715743335
 21
-308.2207331140504
 31
0.0
  0
LINE
  5
2AD
330
1F
100
AcDbEntity
  8
0
 62
     3
100
AcDbLine
 10
1392.420715743335
 20
-625.2207331140503
 30
0.0
 11
1792.420715743335
 21
-625.2207331140503
 31
0.0
  0
LINE
  5
2AE
330
1F
100
AcDbEntity
  8
0
 62
     3
100
AcDbLine
 10
1392.420715743335
 20
-750.2207331140503
 30
0.0
 11
1792.420715743335
 21
-750.2207331140503
 31
0.0
  0
LINE
  5
2AF
330
1F
100
AcDbEntity
  8
0
 62
     3
100
AcDbLine
 10
1392.420715743335
 20
-439.2207331140502
 30
0.0
 11
1578.42071574334
 21
-439.2207331140502
 31
0.0
  0
LINE
  5
2B0
330
1F
100
AcDbEntity
  8
0
 62
     3
100
AcDbLine
 10
1606.42071574334
 20
-439.2207331140502
 30
0.0
 11
1792.420715743335
 21
-439.2207331140502
 31
0.0
  0
LINE
  5
2B1
330
1F
100
AcDbEntity
  8
0
 62
     3
100
AcDbLine
 10
1392.420715743335
 20
-564.2207331140503
 30
0.0
 11
1575.92071574334
 21
-564.2207331140503
 31
0.0
  0
LINE
  5
2B2
330
1F
100
AcDbEntity
  8
0
 62
     3
100
AcDbLine
 10
1608.92071574334
 20
-564.2207331140503
 30
0.0
 11
1792.420715743335
 21
-564.2207331140503
 31
0.0
  0
LINE
  5
2B3
330
1F
100
AcDbEntity
  8
0
 62
     3
100
AcDbLine
 10
1252.420715743335
 20
-324.2207331140504
 30
0.0
 11
1252.420715743335
 21
-345.2207331140496
 31
0.0
  0
LINE
  5
2B4
330
1F
100
AcDbEntity
  8
0
 62
     3
100
AcDbLine
 10
1332.420715743335
 20
-324.2207331140504
 30
0.0
 11
1332.420715743335
 21
-345.2207331140494
 31
0.0
  0
LINE
  5
2B5
330
1F
100
AcDbEntity
  8
0
 62
     3
100
AcDbLine
 10
1368.670715743335
 20
-350.2207331140629
 30
0.0
 11
1368.670715743335
 21
-345.2207331140492
 31
0.0
  0
LINE
  5
2B6
330
1F
100
AcDbEntity
  8
0
 62
     3
100
AcDbLine
 10
1216.170715743335
 20
-350.2207331140629
 30
0.0
 11
1216.170715743335
 21
-345.2207331140497
 31
0.0
  0
LINE
  5
2B7
330
1F
100
AcDbEntity
  8
0
 62
     3
100
AcDbLine
 10
1216.170715743335
 20
-345.2207331140497
 30
0.0
 11
1368.670715743335
 21
-345.2207331140492
 31
0.0
  0
LINE
  5
2B8
330
1F
100
AcDbEntity
  8
0
 62
     3
100
AcDbLine
 10
1415.420715743335
 20
-390.2207331140629
 30
0.0
 11
1415.420715743335
 21
-394.2207331140629
 31
0.0
  0
LINE
  5
2B9
330
1F
100
AcDbEntity
  8
0
 62
     3
100
AcDbLine
 10
1169.420715743335
 20
-390.2207331140629
 30
0.0
 11
1169.420715743335
 21
-394.2207331140629
 31
0.0
  0
LINE
  5
2BA
330
1F
100
AcDbEntity
  8
0
 62
     3
100
AcDbLine
 10
1167.420715743335
 20
-390.2207331140629
 30
0.0
 11
1417.420715743335
 21
-390.2207331140629
 31
0.0
  0
LINE
  5
2BB
330
1F
100
AcDbEntity
  8
0
 62
     3
100
AcDbLine
 10
1167.420715743335
 20
-350.2207331140629
 30
0.0
 11
1167.420715743335
 21
-390.2207331140629
 31
0.0
  0
LINE
  5
2BC
330
1F
100
AcDbEntity
  8
0
 62
     3
100
AcDbLine
 10
1417.420715743335
 20
-350.2207331140629
 30
0.0
 11
1417.420715743335
 21
-390.2207331140629
 31
0.0
  0
LINE
  5
2BD
330
1F
100
AcDbEntity
  8
0
 62
     3
100
AcDbLine
 10
1417.420715743335
 20
-350.2207331140629
 30
0.0
 11
1167.420715743335
 21
-350.2207331140629
 31
0.0
  0
LINE
  5
2BE
330
1F
100
AcDbEntity
  8
0
 62
     3
100
AcDbLine
 10
1417.420715743335
 20
-394.2207331140624
 30
0.0
 11
1167.420715743335
 21
-394.2207331140619
 31
0.0
  0
LINE
  5
2BF
330
1F
100
AcDbEntity
  8
0
 62
     3
100
AcDbLine
 10
1167.420715743335
 20
-419.2207331140619
 30
0.0
 11
1417.420715743335
 21
-419.2207331140624
 31
0.0
  0
LINE
  5
2C0
330
1F
100
AcDbEntity
  8
0
 62
     3
100
AcDbLine
 10
1417.420715743335
 20
-419.2207331140622
 30
0.0
 11
1417.420715743335
 21
-394.2207331140624
 31
0.0
  0
LINE
  5
2C1
330
1F
100
AcDbEntity
  8
0
 62
     3
100
AcDbLine
 10
1167.420715743335
 20
-394.2207331140619
 30
0.0
 11
1167.420715743335
 21
-419.2207331140619
 31
0.0
  0
LINE
  5
2C2
330
1F
100
AcDbEntity
  8
0
 62
     3
100
AcDbLine
 10
1167.420715743335
 20
-324.2207331140504
 30
0.0
 11
1417.420715743335
 21
-324.2207331140504
 31
0.0
  0
LINE
  5
2C3
330
1F
100
AcDbEntity
  8
0
 62
     3
100
AcDbLine
 10
1167.420715743335
 20
-308.2207331140504
 30
0.0
 11
1167.420715743335
 21
-324.2207331140504
 31
0.0
  0
LINE
  5
2C4
330
1F
100
AcDbEntity
  8
0
 62
     3
100
AcDbLine
 10
1417.420715743335
 20
-324.2207331140504
 30
0.0
 11
1417.420715743335
 21
-308.2207331140504
 31
0.0
  0
LINE
  5
2C5
330
1F
100
AcDbEntity
  8
0
 62
     3
100
AcDbLine
 10
1192.420715743335
 20
-419.2207331140627
 30
0.0
 11
1192.420715743335
 21
-814.2207331140623
 31
0.0
  0
LINE
  5
2C6
330
1F
100
AcDbEntity
  8
0
 62
     3
100
AcDbLine
 10
1392.420715743335
 20
-419.2207331140627
 30
0.0
 11
1392.420715743335
 21
-814.2207331140623
 31
0.0
  0
LINE
  5
2C7
330
1F
100
AcDbEntity
  8
0
 62
     3
100
AcDbLine
 10
1192.420715743335
 20
-814.2207331140623
 30
0.0
 11
1392.420715743335
 21
-814.2207331140623
 31
0.0
  0
LINE
  5
2C8
330
1F
100
AcDbEntity
  8
0
 62
     3
100
AcDbLine
 10
1252.420715743335
 20
-900.2207331140505
 30
0.0
 11
1252.420715743335
 21
-908.2207331140505
 31
0.0
  0
LINE
  5
2C9
330
1F
100
AcDbEntity
  8
0
 62
     3
100
AcDbLine
 10
1332.420715743335
 20
-908.2207331140505
 30
0.0
 11
1252.420715743335
 21
-908.2207331140505
 31
0.0
  0
LINE
  5
2CA
330
1F
100
AcDbEntity
  8
0
 62
     3
100
AcDbLine
 10
1252.420715743335
 20
-900.2207331140505
 30
0.0
 11
1332.420715743335
 21
-900.2207331140505
 31
0.0
  0
LINE
  5
2CB
330
1F
100
AcDbEntity
  8
0
 62
     3
100
AcDbLine
 10
1332.420715743335
 20
-900.2207331140505
 30
0.0
 11
1332.420715743335
 21
-908.2207331140505
 31
0.0
  0
LINE
  5
2CC
330
1F
100
AcDbEntity
  8
0
 62
     3
100
AcDbLine
 10
1252.420715743335
 20
-900.2207331140505
 30
0.0
 11
1269.920715743335
 21
-885.2207331140505
 31
0.0
  0
LINE
  5
2CD
330
1F
100
AcDbEntity
  8
0
 62
     3
100
AcDbLine
 10
1314.920715743335
 20
-885.2207331140505
 30
0.0
 11
1332.420715743335
 21
-900.2207331140505
 31
0.0
  0
LINE
  5
2CE
330
1F
100
AcDbEntity
  8
0
 62
     3
100
AcDbLine
 10
1269.920715743335
 20
-885.2207331140505
 30
0.0
 11
1314.920715743335
 21
-885.2207331140505
 31
0.0
  0
LINE
  5
2CF
330
1F
100
AcDbEntity
  8
0
 62
     3
100
AcDbLine
 10
1318.970715743336
 20
-865.2207331140505
 30
0.0
 11
1265.870715743336
 21
-865.2207331140505
 31
0.0
  0
LINE
  5
2D0
330
1F
100
AcDbEntity
  8
0
 62
     3
100
AcDbLine
 10
1312.331187647654
 20
-885.2207331140505
 30
0.0
 11
1272.510243839016
 21
-885.2207331140505
 31
0.0
  0
ARC
  5
2D1
330
1F
100
AcDbEntity
  8
0
 62
     3
100
AcDbCircle
 10
1312.331187647654
 20
-875.5166488230366
 30
0.0
 40
9.704084291014084
100
AcDbArc
 50
226.8273275017968
 51
313.1726724982032
  0
ARC
  5
2D2
330
1F
100
AcDbEntity
  8
0
 62
     3
100
AcDbCircle
 10
1272.510243839016
 20
-875.5166488230366
 30
0.0
 40
9.704084291014084
100
AcDbArc
 50
226.8273275017968
 51
313.1726724982032
  0
ARC
  5
2D3
330
1F
100
AcDbEntity
  8
0
 62
     3
100
AcDbCircle
 10
1292.420715743335
 20
-850.3858066600362
 30
0.0
 40
34.83492645401438
100
AcDbArc
 50
247.6064304957075
 51
292.3935695042925
  0
LINE
  5
2D4
330
1F
100
AcDbEntity
  8
0
 62
     3
100
AcDbLine
 10
1265.870715743336
 20
-865.2207331140505
 30
0.0
 11
1265.870715743336
 21
-882.5937893892378
 31
0.0
  0
LINE
  5
2D5
330
1F
100
AcDbEntity
  8
0
 62
     3
100
AcDbLine
 10
1279.149771934696
 20
-865.2207331140505
 30
0.0
 11
1279.149771934696
 21
-882.5937893892378
 31
0.0
  0
LINE
  5
2D6
330
1F
100
AcDbEntity
  8
0
 62
     3
100
AcDbLine
 10
1305.691659551974
 20
-882.5937893892378
 30
0.0
 11
1305.691659551974
 21
-865.2207331140505
 31
0.0
  0
LINE
  5
2D7
330
1F
100
AcDbEntity
  8
0
 62
     3
100
AcDbLine
 10
1318.970715743336
 20
-865.2207331140505
 30
0.0
 11
1318.970715743336
 21
-882.5937893892378
 31
0.0
  0
LINE
  5
2D8
330
1F
100
AcDbEntity
  8
0
 62
     3
100
AcDbLine
 10
1318.970715743336
 20
-814.2207331140623
 30
0.0
 11
1318.970715743336
 21
-830.5937893892492
 31
0.0
  0
LINE
  5
2D9
330
1F
100
AcDbEntity
  8
0
 62
     3
100
AcDbLine
 10
1305.691659551974
 20
-830.5937893892492
 30
0.0
 11
1305.691659551974
 21
-814.2207331140623
 31
0.0
  0
LINE
  5
2DA
330
1F
100
AcDbEntity
  8
0
 62
     3
100
AcDbLine
 10
1312.331187647654
 20
-833.2207331140619
 30
0.0
 11
1272.510243839016
 21
-833.2207331140619
 31
0.0
  0
LINE
  5
2DB
330
1F
100
AcDbEntity
  8
0
 62
     3
100
AcDbLine
 10
1265.870715743336
 20
-814.2207331140626
 30
0.0
 11
1265.870715743336
 21
-830.5937893892492
 31
0.0
  0
LINE
  5
2DC
330
1F
100
AcDbEntity
  8
0
 62
     3
100
AcDbLine
 10
1279.149771934696
 20
-814.2207331140623
 30
0.0
 11
1279.149771934696
 21
-830.5937893892492
 31
0.0
  0
ARC
  5
2DD
330
1F
100
AcDbEntity
  8
0
 62
     3
100
AcDbCircle
 10
1312.331187647654
 20
-823.5166488230479
 30
0.0
 40
9.704084291014084
100
AcDbArc
 50
226.8273275017968
 51
313.1726724982032
  0
ARC
  5
2DE
330
1F
100
AcDbEntity
  8
0
 62
     3
100
AcDbCircle
 10
1272.510243839016
 20
-823.5166488230479
 30
0.0
 40
9.704084291014084
100
AcDbArc
 50
226.8273275017968
 51
313.1726724982032
  0
ARC
  5
2DF
330
1F
100
AcDbEntity
  8
0
 62
     3
100
AcDbCircle
 10
1292.420715743335
 20
-798.3858066600476
 30
0.0
 40
34.83492645401438
100
AcDbArc
 50
247.6064304957075
 51
292.3935695042925
  0
LINE
  5
2E0
330
1F
100
AcDbEntity
  8
0
 62
     3
100
AcDbLine
 10
1314.920715743335
 20
-885.2207331140505
 30
0.0
 11
1272.510243839016
 21
-885.2207331140505
 31
0.0
  0
LINE
  5
2E1
330
1F
100
AcDbEntity
  8
0
 62
     3
100
AcDbLine
 10
1932.420715743335
 20
-324.2207331140504
 30
0.0
 11
1932.420715743335
 21
-345.2207331140496
 31
0.0
  0
LINE
  5
2E2
330
1F
100
AcDbEntity
  8
0
 62
     3
100
AcDbLine
 10
1852.420715743335
 20
-324.2207331140504
 30
0.0
 11
1852.420715743335
 21
-345.2207331140494
 31
0.0
  0
LINE
  5
2E3
330
1F
100
AcDbEntity
  8
0
 62
     3
100
AcDbLine
 10
1816.170715743335
 20
-350.2207331140629
 30
0.0
 11
1816.170715743335
 21
-345.2207331140492
 31
0.0
  0
LINE
  5
2E4
330
1F
100
AcDbEntity
  8
0
 62
     3
100
AcDbLine
 10
1968.670715743335
 20
-350.2207331140629
 30
0.0
 11
1968.670715743335
 21
-345.2207331140497
 31
0.0
  0
LINE
  5
2E5
330
1F
100
AcDbEntity
  8
0
 62
     3
100
AcDbLine
 10
1968.670715743335
 20
-345.2207331140497
 30
0.0
 11
1816.170715743335
 21
-345.2207331140492
 31
0.0
  0
LINE
  5
2E6
330
1F
100
AcDbEntity
  8
0
 62
     3
100
AcDbLine
 10
1769.420715743335
 20
-390.2207331140629
 30
0.0
 11
1769.420715743335
 21
-394.2207331140629
 31
0.0
  0
LINE
  5
2E7
330
1F
100
AcDbEntity
  8
0
 62
     3
100
AcDbLine
 10
2015.420715743335
 20
-390.2207331140629
 30
0.0
 11
2015.420715743335
 21
-394.2207331140629
 31
0.0
  0
LINE
  5
2E8
330
1F
100
AcDbEntity
  8
0
 62
     3
100
AcDbLine
 10
2017.420715743335
 20
-390.2207331140629
 30
0.0
 11
1767.420715743335
 21
-390.2207331140629
 31
0.0
  0
LINE
  5
2E9
330
1F
100
AcDbEntity
  8
0
 62
     3
100
AcDbLine
 10
2017.420715743335
 20
-350.2207331140629
 30
0.0
 11
2017.420715743335
 21
-390.2207331140629
 31
0.0
  0
LINE
  5
2EA
330
1F
100
AcDbEntity
  8
0
 62
     3
100
AcDbLine
 10
1767.420715743335
 20
-350.2207331140629
 30
0.0
 11
1767.420715743335
 21
-390.2207331140629
 31
0.0
  0
LINE
  5
2EB
330
1F
100
AcDbEntity
  8
0
 62
     3
100
AcDbLine
 10
1767.420715743335
 20
-350.2207331140629
 30
0.0
 11
2017.420715743335
 21
-350.2207331140629
 31
0.0
  0
LINE
  5
2EC
330
1F
100
AcDbEntity
  8
0
 62
     3
100
AcDbLine
 10
1767.420715743335
 20
-394.2207331140624
 30
0.0
 11
2017.420715743335
 21
-394.2207331140619
 31
0.0
  0
LINE
  5
2ED
330
1F
100
AcDbEntity
  8
0
 62
     3
100
AcDbLine
 10
2017.420715743335
 20
-419.2207331140619
 30
0.0
 11
1767.420715743335
 21
-419.2207331140624
 31
0.0
  0
LINE
  5
2EE
330
1F
100
AcDbEntity
  8
0
 62
     3
100
AcDbLine
 10
1767.420715743335
 20
-419.2207331140622
 30
0.0
 11
1767.420715743335
 21
-394.2207331140624
 31
0.0
  0
LINE
  5
2EF
330
1F
100
AcDbEntity
  8
0
 62
     3
100
AcDbLine
 10
2017.420715743335
 20
-394.2207331140619
 30
0.0
 11
2017.420715743335
 21
-419.2207331140619
 31
0.0
  0
LINE
  5
2F0
330
1F
100
AcDbEntity
  8
0
 62
     3
100
AcDbLine
 10
2017.420715743335
 20
-324.2207331140504
 30
0.0
 11
1767.420715743335
 21
-324.2207331140504
 31
0.0
  0
LINE
  5
2F1
330
1F
100
AcDbEntity
  8
0
 62
     3
100
AcDbLine
 10
2017.420715743335
 20
-308.2207331140504
 30
0.0
 11
2017.420715743335
 21
-324.2207331140504
 31
0.0
  0
LINE
  5
2F2
330
1F
100
AcDbEntity
  8
0
 62
     3
100
AcDbLine
 10
1767.420715743335
 20
-324.2207331140504
 30
0.0
 11
1767.420715743335
 21
-308.2207331140504
 31
0.0
  0
LINE
  5
2F3
330
1F
100
AcDbEntity
  8
0
 62
     3
100
AcDbLine
 10
1992.420715743335
 20
-419.2207331140627
 30
0.0
 11
1992.420715743335
 21
-814.2207331140623
 31
0.0
  0
LINE
  5
2F4
330
1F
100
AcDbEntity
  8
0
 62
     3
100
AcDbLine
 10
1792.420715743335
 20
-419.2207331140627
 30
0.0
 11
1792.420715743335
 21
-814.2207331140623
 31
0.0
  0
LINE
  5
2F5
330
1F
100
AcDbEntity
  8
0
 62
     3
100
AcDbLine
 10
1992.420715743335
 20
-814.2207331140623
 30
0.0
 11
1792.420715743335
 21
-814.2207331140623
 31
0.0
  0
LINE
  5
2F6
330
1F
100
AcDbEntity
  8
0
 62
     3
100
AcDbLine
 10
1932.420715743335
 20
-900.2207331140505
 30
0.0
 11
1932.420715743335
 21
-908.2207331140505
 31
0.0
  0
LINE
  5
2F7
330
1F
100
AcDbEntity
  8
0
 62
     3
100
AcDbLine
 10
1852.420715743335
 20
-908.2207331140505
 30
0.0
 11
1932.420715743335
 21
-908.2207331140505
 31
0.0
  0
LINE
  5
2F8
330
1F
100
AcDbEntity
  8
0
 62
     3
100
AcDbLine
 10
1932.420715743335
 20
-900.2207331140505
 30
0.0
 11
1852.420715743335
 21
-900.2207331140505
 31
0.0
  0
LINE
  5
2F9
330
1F
100
AcDbEntity
  8
0
 62
     3
100
AcDbLine
 10
1852.420715743335
 20
-900.2207331140505
 30
0.0
 11
1852.420715743335
 21
-908.2207331140505
 31
0.0
  0
LINE
  5
2FA
330
1F
100
AcDbEntity
  8
0
 62
     3
100
AcDbLine
 10
1932.420715743335
 20
-900.2207331140505
 30
0.0
 11
1914.920715743335
 21
-885.2207331140505
 31
0.0
  0
LINE
  5
2FB
330
1F
100
AcDbEntity
  8
0
 62
     3
100
AcDbLine
 10
1869.920715743335
 20
-885.2207331140505
 30
0.0
 11
1852.420715743335
 21
-900.2207331140505
 31
0.0
  0
LINE
  5
2FC
330
1F
100
AcDbEntity
  8
0
 62
     3
100
AcDbLine
 10
1914.920715743335
 20
-885.2207331140505
 30
0.0
 11
1869.920715743335
 21
-885.2207331140505
 31
0.0
  0
LINE
  5
2FD
330
1F
100
AcDbEntity
  8
0
 62
     3
100
AcDbLine
 10
1865.870715743334
 20
-865.2207331140505
 30
0.0
 11
1918.970715743335
 21
-865.2207331140505
 31
0.0
  0
LINE
  5
2FE
330
1F
100
AcDbEntity
  8
0
 62
     3
100
AcDbLine
 10
1872.510243839016
 20
-885.2207331140505
 30
0.0
 11
1912.331187647654
 21
-885.2207331140505
 31
0.0
  0
ARC
  5
2FF
330
1F
100
AcDbEntity
  8
0
 62
     3
100
AcDbCircle
 10
1872.510243839016
 20
-875.5166488230366
 30
0.0
 40
9.704084291014084
100
AcDbArc
 50
226.8273275017968
 51
313.1726724982032
  0
ARC
  5
300
330
1F
100
AcDbEntity
  8
0
 62
     3
100
AcDbCircle
 10
1912.331187647654
 20
-875.5166488230366
 30
0.0
 40
9.704084291014084
100
AcDbArc
 50
226.8273275017968
 51
313.1726724982032
  0
ARC
  5
301
330
1F
100
AcDbEntity
  8
0
 62
     3
100
AcDbCircle
 10
1892.420715743335
 20
-850.3858066600362
 30
0.0
 40
34.83492645401438
100
AcDbArc
 50
247.6064304957075
 51
292.3935695042925
  0
LINE
  5
302
330
1F
100
AcDbEntity
  8
0
 62
     3
100
AcDbLine
 10
1918.970715743335
 20
-865.2207331140505
 30
0.0
 11
1918.970715743335
 21
-882.5937893892378
 31
0.0
  0
LINE
  5
303
330
1F
100
AcDbEntity
  8
0
 62
     3
100
AcDbLine
 10
1905.691659551974
 20
-865.2207331140505
 30
0.0
 11
1905.691659551974
 21
-882.5937893892378
 31
0.0
  0
LINE
  5
304
330
1F
100
AcDbEntity
  8
0
 62
     3
100
AcDbLine
 10
1879.149771934696
 20
-882.5937893892378
 30
0.0
 11
1879.149771934696
 21
-865.2207331140505
 31
0.0
  0
LINE
  5
305
330
1F
100
AcDbEntity
  8
0
 62
     3
100
AcDbLine
 10
1865.870715743334
 20
-865.2207331140505
 30
0.0
 11
1865.870715743334
 21
-882.5937893892378
 31
0.0
  0
LINE
  5
306
330
1F
100
AcDbEntity
  8
0
 62
     3
100
AcDbLine
 10
1865.870715743334
 20
-814.2207331140623
 30
0.0
 11
1865.870715743334
 21
-830.5937893892492
 31
0.0
  0
LINE
  5
307
330
1F
100
AcDbEntity
  8
0
 62
     3
100
AcDbLine
 10
1879.149771934696
 20
-830.5937893892492
 30
0.0
 11
1879.149771934696
 21
-814.2207331140623
 31
0.0
  0
LINE
  5
308
330
1F
100
AcDbEntity
  8
0
 62
     3
100
AcDbLine
 10
1872.510243839016
 20
-833.2207331140619
 30
0.0
 11
1912.331187647654
 21
-833.2207331140619
 31
0.0
  0
LINE
  5
309
330
1F
100
AcDbEntity
  8
0
 62
     3
100
AcDbLine
 10
1918.970715743335
 20
-814.2207331140626
 30
0.0
 11
1918.970715743335
 21
-830.5937893892492
 31
0.0
  0
LINE
  5
30A
330
1F
100
AcDbEntity
  8
0
 62
     3
100
AcDbLine
 10
1905.691659551974
 20
-814.2207331140623
 30
0.0
 11
1905.691659551974
 21
-830.5937893892492
 31
0.0
  0
ARC
  5
30B
330
1F
100
AcDbEntity
  8
0
 62
     3
100
AcDbCircle
 10
1872.510243839016
 20
-823.5166488230479
 30
0.0
 40
9.704084291014084
100
AcDbArc
 50
226.8273275017968
 51
313.1726724982032
  0
ARC
  5
30C
330
1F
100
AcDbEntity
  8
0
 62
     3
100
AcDbCircle
 10
1912.331187647654
 20
-823.5166488230479
 30
0.0
 40
9.704084291014084
100
AcDbArc
 50
226.8273275017968
 51
313.1726724982032
  0
ARC
  5
30D
330
1F
100
AcDbEntity
  8
0
 62
     3
100
AcDbCircle
 10
1892.420715743335
 20
-798.3858066600476
 30
0.0
 40
34.83492645401438
100
AcDbArc
 50
247.6064304957075
 51
292.3935695042925
  0
LINE
  5
30E
330
1F
100
AcDbEntity
  8
0
 62
     3
100
AcDbLine
 10
1869.920715743335
 20
-885.2207331140505
 30
0.0
 11
1912.331187647654
 21
-885.2207331140505
 31
0.0
  0
LINE
  5
30F
330
1F
100
AcDbEntity
  8
0
 62
     3
100
AcDbLine
 10
1442.420715743335
 20
-750.2207331140503
 30
0.0
 11
1442.420715743335
 21
-759.2207331140503
 31
0.0
  0
LINE
  5
310
330
1F
100
AcDbEntity
  8
0
 62
     3
100
AcDbLine
 10
1552.420715743335
 20
-759.2207331140503
 30
0.0
 11
1442.420715743335
 21
-759.2207331140503
 31
0.0
  0
LINE
  5
311
330
1F
100
AcDbEntity
  8
0
 62
     3
100
AcDbLine
 10
1552.420715743335
 20
-750.2207331140503
 30
0.0
 11
1552.420715743335
 21
-759.2207331140503
 31
0.0
  0
LINE
  5
312
330
1F
100
AcDbEntity
  8
0
  6
CENTER
 62
     4
100
AcDbLine
 10
-907.5792842566651
 20
1250.366124874194
 30
0.0
 11
-907.5792842566651
 21
238.9660583627207
 31
0.0
  0
LINE
  5
313
330
1F
100
AcDbEntity
  8
0
  6
CENTER
 62
     4
100
AcDbLine
 10
-1842.657237099874
 20
741.7792668859497
 30
0.0
 11
28.43288594635226
 21
741.7792668859497
 31
0.0
  0
LINE
  5
314
330
1F
100
AcDbEntity
  8
0
  6
CENTER
 62
     4
100
AcDbLine
 10
-907.5792842566651
 20
-53.59057140591474
 30
0.0
 11
-907.5792842566651
 21
-809.6750250752255
 31
0.0
  0
LINE
  5
315
330
1F
100
AcDbEntity
  8
0
  6
CENTER
 62
     4
100
AcDbLine
 10
-885.5792842566625
 20
-351.2207331140504
 30
0.0
 11
-879.3274978106847
 21
-351.2207331140504
 31
0.0
  0
LINE
  5
316
330
1F
100
AcDbEntity
  8
0
  6
CENTER
 62
     4
100
AcDbLine
 10
-871.7267535686278
 20
-361.7207331140504
 30
0.0
 11
-864.6787907259932
 21
-361.7207331140504
 31
0.0
  0
LINE
  5
317
330
1F
100
AcDbEntity
  8
0
  6
CENTER
 62
     4
100
AcDbLine
 10
-867.0792842566625
 20
-348.4727333204142
 30
0.0
 11
-867.0792842566625
 21
-351.8826858221301
 31
0.0
  0
LINE
  5
318
330
1F
100
AcDbEntity
  8
0
  6
CENTER
 62
     4
100
AcDbLine
 10
-868.6545732297818
 20
-350.2207331140504
 30
0.0
 11
-865.520175428218
 21
-350.2207331140504
 31
0.0
  0
LINE
  5
319
330
1F
100
AcDbEntity
  8
0
  6
CENTER
 62
     4
100
AcDbLine
 10
-882.5792842566625
 20
-347.7984941663563
 30
0.0
 11
-882.5792842566625
 21
-354.8797027312886
 31
0.0
  0
LINE
  5
31A
330
1F
100
AcDbEntity
  8
0
  6
CENTER
 62
     4
100
AcDbLine
 10
-868.0792842566625
 20
-358.1750352706145
 30
0.0
 11
-868.0792842566625
 21
-365.2183653224839
 31
0.0
  0
LINE
  5
31B
330
1F
100
AcDbEntity
  8
0
  6
CENTER
 62
     4
100
AcDbLine
 10
-1507.579284256665
 20
-908.2207331140505
 30
0.0
 11
-1507.579284256665
 21
-255.43529808639
 31
0.0
  0
LINE
  5
31C
330
1F
100
AcDbEntity
  8
0
  6
CENTER
 62
     4
100
AcDbLine
 10
-1302.579284256665
 20
-741.3706056440932
 30
0.0
 11
-1302.579284256665
 21
-788.7901694994389
 31
0.0
  0
LINE
  5
31D
330
1F
100
AcDbEntity
  8
0
  6
CENTER
 62
     4
100
AcDbLine
 10
-307.579284256665
 20
-908.2207331140505
 30
0.0
 11
-307.579284256665
 21
-255.43529808639
 31
0.0
  0
LINE
  5
31E
330
1F
100
AcDbEntity
  8
0
  6
CENTER
 62
     4
100
AcDbLine
 10
-512.579284256665
 20
-741.3706056440932
 30
0.0
 11
-512.579284256665
 21
-788.7901694994389
 31
0.0
  0
LINE
  5
31F
330
1F
100
AcDbEntity
  8
0
  6
CENTER
 62
     4
100
AcDbLine
 10
1292.420715743335
 20
-908.2207331140505
 30
0.0
 11
1292.420715743335
 21
-255.4352980863899
 31
0.0
  0
LINE
  5
320
330
1F
100
AcDbEntity
  8
0
  6
CENTER
 62
     4
100
AcDbLine
 10
1892.420715743335
 20
-908.2207331140505
 30
0.0
 11
1892.420715743335
 21
-255.4352980863899
 31
0.0
  0
LINE
  5
321
330
1F
100
AcDbEntity
  8
0
  6
CENTER
 62
     4
100
AcDbLine
 10
1592.420715743335
 20
-78.52365795891521
 30
0.0
 11
1592.420715743335
 21
-827.6178535606821
 31
0.0
  0
LINE
  5
322
330
1F
100
AcDbEntity
  8
0
  6
CENTER
 62
     4
100
AcDbLine
 10
1497.420715743335
 20
-741.3706056440932
 30
0.0
 11
1497.420715743335
 21
-788.7901694994389
 31
0.0
  0
LINE
  5
323
330
1F
100
AcDbEntity
  8
0
  6
DASHED2
 62
     4
100
AcDbLine
 10
-1445.079284256665
 20
-439.2207331140504
 30
0.0
 11
-1570.079284256666
 21
-439.2207331140504
 31
0.0
  0
LINE
  5
324
330
1F
100
AcDbEntity
  8
0
  6
DASHED2
 62
     4
100
AcDbLine
 10
-1445.079284256665
 20
-564.2207331140503
 30
0.0
 11
-1570.079284256666
 21
-564.2207331140503
 31
0.0
  0
LINE
  5
325
330
1F
100
AcDbEntity
  8
0
  6
DASHED2
 62
     4
100
AcDbLine
 10
-1570.079284256666
 20
-564.2207331140503
 30
0.0
 11
-1570.079284256666
 21
-439.2207331140504
 31
0.0
  0
LINE
  5
326
330
1F
100
AcDbEntity
  8
0
  6
DASHED2
 62
     4
100
AcDbLine
 10
-1445.079284256665
 20
-564.2207331140503
 30
0.0
 11
-1445.079284256665
 21
-439.2207331140504
 31
0.0
  0
LINE
  5
327
330
1F
100
AcDbEntity
  8
0
  6
DASHED2
 62
     4
100
AcDbLine
 10
-1445.079284256665
 20
-625.2207331140503
 30
0.0
 11
-1570.079284256666
 21
-625.2207331140503
 31
0.0
  0
LINE
  5
328
330
1F
100
AcDbEntity
  8
0
  6
DASHED2
 62
     4
100
AcDbLine
 10
-1445.079284256665
 20
-750.2207331140503
 30
0.0
 11
-1570.079284256666
 21
-750.2207331140503
 31
0.0
  0
LINE
  5
329
330
1F
100
AcDbEntity
  8
0
  6
DASHED2
 62
     4
100
AcDbLine
 10
-1570.079284256666
 20
-750.2207331140503
 30
0.0
 11
-1570.079284256666
 21
-625.2207331140503
 31
0.0
  0
LINE
  5
32A
330
1F
100
AcDbEntity
  8
0
  6
DASHED2
 62
     4
100
AcDbLine
 10
-1445.079284256665
 20
-750.2207331140503
 30
0.0
 11
-1445.079284256665
 21
-625.2207331140503
 31
0.0
  0
LINE
  5
32B
330
1F
100
AcDbEntity
  8
0
  6
DASHED2
 62
     4
100
AcDbLine
 10
-370.079284256665
 20
-439.2207331140504
 30
0.0
 11
-245.0792842566648
 21
-439.2207331140504
 31
0.0
  0
LINE
  5
32C
330
1F
100
AcDbEntity
  8
0
  6
DASHED2
 62
     4
100
AcDbLine
 10
-370.079284256665
 20
-564.2207331140503
 30
0.0
 11
-245.0792842566648
 21
-564.2207331140503
 31
0.0
  0
LINE
  5
32D
330
1F
100
AcDbEntity
  8
0
  6
DASHED2
 62
     4
100
AcDbLine
 10
-245.0792842566648
 20
-564.2207331140503
 30
0.0
 11
-245.0792842566648
 21
-439.2207331140504
 31
0.0
  0
LINE
  5
32E
330
1F
100
AcDbEntity
  8
0
  6
DASHED2
 62
     4
100
AcDbLine
 10
-370.079284256665
 20
-564.2207331140503
 30
0.0
 11
-370.079284256665
 21
-439.2207331140504
 31
0.0
  0
LINE
  5
32F
330
1F
100
AcDbEntity
  8
0
  6
DASHED2
 62
     4
100
AcDbLine
 10
-370.079284256665
 20
-625.2207331140503
 30
0.0
 11
-245.0792842566648
 21
-625.2207331140503
 31
0.0
  0
LINE
  5
330
330
1F
100
AcDbEntity
  8
0
  6
DASHED2
 62
     4
100
AcDbLine
 10
-370.079284256665
 20
-750.2207331140503
 30
0.0
 11
-245.0792842566648
 21
-750.2207331140503
 31
0.0
  0
LINE
  5
331
330
1F
100
AcDbEntity
  8
0
  6
DASHED2
 62
     4
100
AcDbLine
 10
-245.0792842566648
 20
-750.2207331140503
 30
0.0
 11
-245.0792842566648
 21
-625.2207331140503
 31
0.0
  0
LINE
  5
332
330
1F
100
AcDbEntity
  8
0
  6
DASHED2
 62
     4
100
AcDbLine
 10
-370.079284256665
 20
-750.2207331140503
 30
0.0
 11
-370.079284256665
 21
-625.2207331140503
 31
0.0
  0
LINE
  5
333
330
1F
100
AcDbEntity
  8
0
  6
DASHED2
 62
     4
100
AcDbLine
 10
1529.920715743335
 20
-750.2207331140503
 30
0.0
 11
1529.920715743335
 21
-625.2207331140503
 31
0.0
  0
LINE
  5
334
330
1F
100
AcDbEntity
  8
0
  6
DASHED2
 62
     4
100
AcDbLine
 10
1654.920715743335
 20
-750.2207331140503
 30
0.0
 11
1654.920715743335
 21
-625.2207331140503
 31
0.0
  0
LINE
  5
335
330
1F
100
AcDbEntity
  8
0
  6
DASHED2
 62
     4
100
AcDbLine
 10
1529.920715743335
 20
-564.2207331140503
 30
0.0
 11
1529.920715743335
 21
-439.2207331140502
 31
0.0
  0
LINE
  5
336
330
1F
100
AcDbEntity
  8
0
  6
DASHED2
 62
     4
100
AcDbLine
 10
1654.920715743335
 20
-564.2207331140503
 30
0.0
 11
1654.920715743335
 21
-439.2207331140502
 31
0.0
  0
LINE
  5
337
330
1F
100
AcDbEntity
  8
0
  6
DASHED2
 62
     4
100
AcDbLine
 10
1829.920715743335
 20
-439.2207331140502
 30
0.0
 11
1954.920715743335
 21
-439.2207331140502
 31
0.0
  0
LINE
  5
338
330
1F
100
AcDbEntity
  8
0
  6
DASHED2
 62
     4
100
AcDbLine
 10
1829.920715743335
 20
-564.2207331140503
 30
0.0
 11
1954.920715743335
 21
-564.2207331140503
 31
0.0
  0
LINE
  5
339
330
1F
100
AcDbEntity
  8
0
  6
DASHED2
 62
     4
100
AcDbLine
 10
1954.920715743335
 20
-564.2207331140503
 30
0.0
 11
1954.920715743335
 21
-439.2207331140502
 31
0.0
  0
LINE
  5
33A
330
1F
100
AcDbEntity
  8
0
  6
DASHED2
 62
     4
100
AcDbLine
 10
1829.920715743335
 20
-564.2207331140503
 30
0.0
 11
1829.920715743335
 21
-439.2207331140502
 31
0.0
  0
LINE
  5
33B
330
1F
100
AcDbEntity
  8
0
  6
DASHED2
 62
     4
100
AcDbLine
 10
1829.920715743335
 20
-625.2207331140503
 30
0.0
 11
1954.920715743335
 21
-625.2207331140503
 31
0.0
  0
LINE
  5
33C
330
1F
100
AcDbEntity
  8
0
  6
DASHED2
 62
     4
100
AcDbLine
 10
1829.920715743335
 20
-750.2207331140503
 30
0.0
 11
1954.920715743335
 21
-750.2207331140503
 31
0.0
  0
LINE
  5
33D
330
1F
100
AcDbEntity
  8
0
  6
DASHED2
 62
     4
100
AcDbLine
 10
1954.920715743335
 20
-750.2207331140503
 30
0.0
 11
1954.920715743335
 21
-625.2207331140503
 31
0.0
  0
LINE
  5
33E
330
1F
100
AcDbEntity
  8
0
  6
DASHED2
 62
     4
100
AcDbLine
 10
1829.920715743335
 20
-750.2207331140503
 30
0.0
 11
1829.920715743335
 21
-625.2207331140503
 31
0.0
  0
LINE
  5
33F
330
1F
100
AcDbEntity
  8
0
  6
DIVIDE
 62
     5
100
AcDbLine
 10
-1547.579284256665
 20
-908.2207331140505
 30
0.0
 11
-267.5792842566651
 21
-908.2207331140503
 31
0.0
  0
LINE
  5
340
330
1F
100
AcDbEntity
  8
0
  6
DIVIDE
 62
     5
100
AcDbLine
 10
1332.420715743335
 20
-908.2207331140505
 30
0.0
 11
1852.420715743335
 21
-908.2207331140505
 31
0.0
  0
LINE
  5
341
330
1F
100
AcDbEntity
  8
LAYER0032
 62
     3
100
AcDbLine
 10
-897.5792842566625
 20
-318.2207331140508
 30
0.0
 11
-912.5792842566625
 21
-318.2207331140506
 31
0.0
  0
LINE
  5
342
330
1F
100
AcDbEntity
  8
LAYER0032
 62
     3
100
AcDbLine
 10
-912.5792842566625
 20
-316.2207331140506
 30
0.0
 11
-912.5792842566625
 21
-318.2207331140506
 31
0.0
  0
LINE
  5
343
330
1F
100
AcDbEntity
  8
LAYER0032
 62
     3
100
AcDbLine
 10
-897.5792842566625
 20
-316.2207331140508
 30
0.0
 11
-912.5792842566625
 21
-316.2207331140506
 31
0.0
  0
LINE
  5
344
330
1F
100
AcDbEntity
  8
LAYER0032
 62
     3
100
AcDbLine
 10
-897.5792842566625
 20
-316.2207331140508
 30
0.0
 11
-897.5792842566625
 21
-318.2207331140508
 31
0.0
  0
LINE
  5
345
330
1F
100
AcDbEntity
  8
LAYER0032
 62
     3
100
AcDbLine
 10
-912.5792842566625
 20
-308.2207331140503
 30
0.0
 11
-912.5792842566625
 21
-309.2207331140503
 31
0.0
  0
LINE
  5
346
330
1F
100
AcDbEntity
  8
LAYER0032
 62
     3
100
AcDbLine
 10
-897.5792842566625
 20
-309.2207331140505
 30
0.0
 11
-912.5792842566625
 21
-309.2207331140503
 31
0.0
  0
LINE
  5
347
330
1F
100
AcDbEntity
  8
LAYER0032
 62
     3
100
AcDbLine
 10
-897.5792842566625
 20
-308.2207331140505
 30
0.0
 11
-912.5792842566625
 21
-308.2207331140503
 31
0.0
  0
LINE
  5
348
330
1F
100
AcDbEntity
  8
LAYER0032
 62
     3
100
AcDbLine
 10
-897.5792842566625
 20
-308.2207331140505
 30
0.0
 11
-897.5792842566625
 21
-309.2207331140505
 31
0.0
  0
LINE
  5
349
330
1F
100
AcDbEntity
  8
LAYER0032
 62
     3
100
AcDbLine
 10
-898.5792842566625
 20
-309.2207331140505
 30
0.0
 11
-898.5792842566625
 21
-316.2207331140508
 31
0.0
  0
LINE
  5
34A
330
1F
100
AcDbEntity
  8
LAYER0032
 62
     3
100
AcDbLine
 10
-911.5792842566625
 20
-316.2207331140506
 30
0.0
 11
-911.5792842566625
 21
-309.2207331140503
 31
0.0
  0
LINE
  5
34B
330
1F
100
AcDbEntity
  8
LAYER0032
  6
CENTER
 62
     4
100
AcDbLine
 10
-905.0792842566625
 20
-305.5952855189819
 30
0.0
 11
-905.0792842566634
 21
-371.2513647147928
 31
0.0
  0
LINE
  5
34C
330
1F
100
AcDbEntity
  8
LAYER0032
  6
CENTER
 62
     4
100
AcDbLine
 10
1555.656336203457
 20
-498.2207331140501
 30
0.0
 11
1675.568381420752
 21
-498.2207331140501
 31
0.0
  0
LINE
  5
34D
330
1F
100
AcDbEntity
  8
0
 62
     3
100
AcDbLine
 10
-882.5792842566625
 20
-348.2207331140504
 30
0.0
 11
-875.5792842566625
 21
-348.2207331140504
 31
0.0
  0
ARC
  5
34E
330
1F
100
AcDbEntity
  8
0
 62
     3
100
AcDbCircle
 10
-882.5792842566625
 20
-351.2207331140504
 30
0.0
 40
3.0
100
AcDbArc
 50
90.0
 51
180.0
  0
CIRCLE
  5
34F
330
1F
100
AcDbEntity
  8
0
 62
     3
100
AcDbCircle
 10
-882.5792842566625
 20
-351.2207331140504
 30
0.0
 40
1.23
  0
CIRCLE
  5
350
330
1F
100
AcDbEntity
  8
0
 62
     3
100
AcDbCircle
 10
-882.5792842566625
 20
-351.2207331140504
 30
0.0
 40
1.5
  0
CIRCLE
  5
351
330
1F
100
AcDbEntity
  8
0
 62
     3
100
AcDbCircle
 10
-868.0792842566625
 20
-361.7207331140504
 30
0.0
 40
1.23
  0
CIRCLE
  5
352
330
1F
100
AcDbEntity
  8
0
 62
     3
100
AcDbCircle
 10
-868.0792842566625
 20
-361.7207331140504
 30
0.0
 40
1.5
  0
LINE
  5
353
330
1F
100
AcDbEntity
  8
0
 62
     3
100
AcDbLine
 10
-865.0792842566625
 20
-341.7207331140504
 30
0.0
 11
-865.0792842566625
 21
-344.7207331140504
 31
0.0
  0
CIRCLE
  5
354
330
1F
100
AcDbEntity
  8
0
 62
     3
100
AcDbCircle
 10
-867.0792842566625
 20
-350.2207331140504
 30
0.0
 40
1.0
  0
LINE
  5
355
330
1F
100
AcDbEntity
  8
0
 62
     3
100
AcDbLine
 10
-869.0792842566625
 20
-344.7207331140504
 30
0.0
 11
-869.0792842566625
 21
-350.2207331140504
 31
0.0
  0
ARC
  5
356
330
1F
100
AcDbEntity
  8
0
 62
     3
100
AcDbCircle
 10
-867.0792842566625
 20
-350.2207331140504
 30
0.0
 40
2.00000000000002
100
AcDbArc
 50
180.0
 51
360.0
  0
LINE
  5
357
330
1F
100
AcDbEntity
  8
0
 62
     3
100
AcDbLine
 10
-865.0792842566625
 20
-344.7207331140504
 30
0.0
 11
-865.0792842566625
 21
-350.2207331140504
 31
0.0
  0
LINE
  5
358
330
1F
100
AcDbEntity
  8
0
 62
     3
100
AcDbLine
 10
-869.0792842566625
 20
-349.4207331140506
 30
0.0
 11
-874.3792842566627
 21
-349.4207331140506
 31
0.0
  0
ARC
  5
359
330
1F
100
AcDbEntity
  8
0
 62
     3
100
AcDbCircle
 10
-882.5792842566625
 20
-351.2207331140504
 30
0.0
 40
3.0
100
AcDbArc
 50
90.0
 51
180.0
  0
LINE
  5
35A
330
1F
100
AcDbEntity
  8
0
 62
     3
100
AcDbLine
 10
-869.0792842566625
 20
-348.2207331140504
 30
0.0
 11
-882.5792842566625
 21
-348.2207331140504
 31
0.0
  0
LINE
  5
35B
330
1F
100
AcDbEntity
  8
0
 62
     3
100
AcDbLine
 10
-865.0792842566625
 20
-350.2207331140504
 30
0.0
 11
-865.0792842566625
 21
-358.7207331140505
 31
0.0
  0
LINE
  5
35C
330
1F
100
AcDbEntity
  8
0
 62
     3
100
AcDbLine
 10
-853.7792842566623
 20
-349.4707331140504
 30
0.0
 11
-852.5792842566625
 21
-349.4707331140504
 31
0.0
  0
LINE
  5
35D
330
1F
100
AcDbEntity
  8
0
 62
     3
100
AcDbLine
 10
-852.5792842566625
 20
-349.4707331140504
 30
0.0
 11
-852.5792842566625
 21
-356.9707331140504
 31
0.0
  0
LINE
  5
35E
330
1F
100
AcDbEntity
  8
0
 62
     3
100
AcDbLine
 10
-853.7792842566623
 20
-349.4707331140504
 30
0.0
 11
-853.7792842566623
 21
-356.9707331140504
 31
0.0
  0
LINE
  5
35F
330
1F
100
AcDbEntity
  8
0
 62
     3
100
AcDbLine
 10
-852.5792842566625
 20
-356.9707331140504
 30
0.0
 11
-853.7792842566623
 21
-356.9707331140504
 31
0.0
  0
LINE
  5
360
330
1F
100
AcDbEntity
  8
0
 62
     3
100
AcDbLine
 10
-853.7792842566623
 20
-350.4707331140504
 30
0.0
 11
-854.7792842566623
 21
-350.4707331140504
 31
0.0
  0
LINE
  5
361
330
1F
100
AcDbEntity
  8
0
 62
     3
100
AcDbLine
 10
-854.7792842566623
 20
-355.9707331140504
 30
0.0
 11
-853.7792842566623
 21
-355.9707331140504
 31
0.0
  0
LINE
  5
362
330
1F
100
AcDbEntity
  8
0
 62
     3
100
AcDbLine
 10
-855.7792842566623
 20
-349.2207331140504
 30
0.0
 11
-854.7792842566623
 21
-349.2207331140504
 31
0.0
  0
LINE
  5
363
330
1F
100
AcDbEntity
  8
0
 62
     3
100
AcDbLine
 10
-855.7792842566623
 20
-357.2207331140504
 30
0.0
 11
-854.7792842566623
 21
-357.2207331140504
 31
0.0
  0
LINE
  5
364
330
1F
100
AcDbEntity
  8
0
 62
     3
100
AcDbLine
 10
-854.7792842566623
 20
-349.2207331140504
 30
0.0
 11
-854.7792842566623
 21
-357.2207331140504
 31
0.0
  0
LINE
  5
365
330
1F
100
AcDbEntity
  8
0
 62
     3
100
AcDbLine
 10
-855.7792842566623
 20
-349.2207331140504
 30
0.0
 11
-855.7792842566623
 21
-357.2207331140504
 31
0.0
  0
LINE
  5
366
330
1F
100
AcDbEntity
  8
0
 62
     3
100
AcDbLine
 10
-858.2792842566623
 20
-349.1207331140504
 30
0.0
 11
-858.2792842566623
 21
-357.3207331140507
 31
0.0
  0
LINE
  5
367
330
1F
100
AcDbEntity
  8
0
 62
     3
100
AcDbLine
 10
-858.2792842566623
 20
-349.1207331140504
 30
0.0
 11
-855.7792842566623
 21
-349.2207331140504
 31
0.0
  0
LINE
  5
368
330
1F
100
AcDbEntity
  8
0
 62
     3
100
AcDbLine
 10
-858.2792842566623
 20
-357.3207331140507
 30
0.0
 11
-855.7792842566623
 21
-357.2207331140504
 31
0.0
  0
LINE
  5
369
330
1F
100
AcDbEntity
  8
0
 62
     3
100
AcDbLine
 10
-853.7792842566623
 20
-357.4707331140504
 30
0.0
 11
-852.5792842566625
 21
-357.4707331140504
 31
0.0
  0
LINE
  5
36A
330
1F
100
AcDbEntity
  8
0
 62
     3
100
AcDbLine
 10
-852.5792842566625
 20
-357.4707331140504
 30
0.0
 11
-852.5792842566625
 21
-364.9707331140504
 31
0.0
  0
LINE
  5
36B
330
1F
100
AcDbEntity
  8
0
 62
     3
100
AcDbLine
 10
-853.7792842566623
 20
-357.4707331140504
 30
0.0
 11
-853.7792842566623
 21
-364.9707331140504
 31
0.0
  0
LINE
  5
36C
330
1F
100
AcDbEntity
  8
0
 62
     3
100
AcDbLine
 10
-852.5792842566625
 20
-364.9707331140504
 30
0.0
 11
-853.7792842566623
 21
-364.9707331140504
 31
0.0
  0
LINE
  5
36D
330
1F
100
AcDbEntity
  8
0
 62
     3
100
AcDbLine
 10
-853.7792842566623
 20
-358.4707331140504
 30
0.0
 11
-854.7792842566623
 21
-358.4707331140504
 31
0.0
  0
LINE
  5
36E
330
1F
100
AcDbEntity
  8
0
 62
     3
100
AcDbLine
 10
-854.7792842566623
 20
-363.9707331140504
 30
0.0
 11
-853.7792842566623
 21
-363.9707331140504
 31
0.0
  0
LINE
  5
36F
330
1F
100
AcDbEntity
  8
0
 62
     3
100
AcDbLine
 10
-855.7792842566623
 20
-365.2207331140504
 30
0.0
 11
-854.7792842566623
 21
-365.2207331140504
 31
0.0
  0
LINE
  5
370
330
1F
100
AcDbEntity
  8
0
 62
     3
100
AcDbLine
 10
-854.7792842566623
 20
-357.2207331140504
 30
0.0
 11
-854.7792842566623
 21
-365.2207331140504
 31
0.0
  0
LINE
  5
371
330
1F
100
AcDbEntity
  8
0
 62
     3
100
AcDbLine
 10
-855.7792842566623
 20
-357.2207331140504
 30
0.0
 11
-855.7792842566623
 21
-365.2207331140504
 31
0.0
  0
LINE
  5
372
330
1F
100
AcDbEntity
  8
0
 62
     3
100
AcDbLine
 10
-858.2792842566623
 20
-357.1207331140504
 30
0.0
 11
-858.2792842566623
 21
-365.3207331140507
 31
0.0
  0
LINE
  5
373
330
1F
100
AcDbEntity
  8
0
 62
     3
100
AcDbLine
 10
-858.2792842566623
 20
-357.1207331140504
 30
0.0
 11
-855.7792842566623
 21
-357.2207331140504
 31
0.0
  0
LINE
  5
374
330
1F
100
AcDbEntity
  8
0
 62
     3
100
AcDbLine
 10
-858.2792842566623
 20
-365.3207331140507
 30
0.0
 11
-855.7792842566623
 21
-365.2207331140504
 31
0.0
  0
LINE
  5
375
330
1F
100
AcDbEntity
  8
0
 62
     3
100
AcDbLine
 10
-865.0792842566625
 20
-349.2207331140508
 30
0.0
 11
-861.5792842566625
 21
-349.2207331140508
 31
0.0
  0
LINE
  5
376
330
1F
100
AcDbEntity
  8
0
 62
     3
100
AcDbLine
 10
-865.0792842566625
 20
-348.2207331140508
 30
0.0
 11
-861.5792842566625
 21
-348.2207331140508
 31
0.0
  0
LINE
  5
377
330
1F
100
AcDbEntity
  8
0
 62
     3
100
AcDbLine
 10
-861.5792842566625
 20
-348.2207331140508
 30
0.0
 11
-861.5792842566625
 21
-349.2207331140508
 31
0.0
  0
LINE
  5
378
330
1F
100
AcDbEntity
  8
0
 62
     3
100
AcDbLine
 10
-858.2792842566623
 20
-349.1207331140504
 30
0.0
 11
-861.5792842566625
 21
-349.2207331140508
 31
0.0
  0
LINE
  5
379
330
1F
100
AcDbEntity
  8
0
 62
     3
100
AcDbLine
 10
-879.5792842566625
 20
-346.7207331140504
 30
0.0
 11
-879.5792842566625
 21
-348.2207331140504
 31
0.0
  0
LINE
  5
37A
330
1F
100
AcDbEntity
  8
0
 62
     3
100
AcDbLine
 10
-879.5792842566625
 20
-346.7207331140504
 30
0.0
 11
-871.5792842566625
 21
-346.7207331140504
 31
0.0
  0
LINE
  5
37B
330
1F
100
AcDbEntity
  8
0
 62
     3
100
AcDbLine
 10
-871.5792842566625
 20
-346.7207331140504
 30
0.0
 11
-871.5792842566625
 21
-348.2207331140504
 31
0.0
  0
LINE
  5
37C
330
1F
100
AcDbEntity
  8
0
 62
     3
100
AcDbLine
 10
-874.1792842566629
 20
-346.7207331140504
 30
0.0
 11
-874.1792842566629
 21
-344.7207331140504
 31
0.0
  0
LINE
  5
37D
330
1F
100
AcDbEntity
  8
0
 62
     3
100
AcDbLine
 10
-876.9792842566631
 20
-346.7207331140504
 30
0.0
 11
-876.9792842566631
 21
-344.7207331140504
 31
0.0
  0
LINE
  5
37E
330
1F
100
AcDbEntity
  8
0
 62
     3
100
AcDbLine
 10
-870.9478777923223
 20
-352.8521395783911
 30
0.0
 11
-870.9478777923223
 21
-349.4207331140506
 31
0.0
  0
LINE
  5
37F
330
1F
100
AcDbEntity
  8
0
 62
     3
100
AcDbLine
 10
-866.0792842566625
 20
-351.9527839216194
 30
0.0
 11
-866.0792842566625
 21
-357.7207331140505
 31
0.0
  0
LINE
  5
380
330
1F
100
AcDbEntity
  8
0
 62
     3
100
AcDbLine
 10
-870.0792842566625
 20
-348.2207331140504
 30
0.0
 11
-870.0792842566625
 21
-349.4207331140506
 31
0.0
  0
LINE
  5
381
330
1F
100
AcDbEntity
  8
0
 62
     3
100
AcDbLine
 10
-885.5792842566625
 20
-440.2207331140504
 30
0.0
 11
-885.5792842566625
 21
-351.2207331140504
 31
0.0
  0
LINE
  5
382
330
1F
100
AcDbEntity
  8
0
 62
     3
100
AcDbLine
 10
-853.5792842566625
 20
-440.2207331140504
 30
0.0
 11
-853.5792842566625
 21
-370.2207331140504
 31
0.0
  0
LINE
  5
383
330
1F
100
AcDbEntity
  8
0
 62
     3
100
AcDbLine
 10
-915.0792842566625
 20
-341.7207331140504
 30
0.0
 11
-915.0792842566625
 21
-344.7207331140504
 31
0.0
  0
LINE
  5
384
330
1F
100
AcDbEntity
  8
0
 62
     3
100
AcDbLine
 10
-865.0792842566625
 20
-341.7207331140504
 30
0.0
 11
-915.0792842566625
 21
-341.7207331140504
 31
0.0
  0
LINE
  5
385
330
1F
100
AcDbEntity
  8
0
 62
     3
100
AcDbLine
 10
-915.0792842566625
 20
-344.7207331140504
 30
0.0
 11
-869.0792842566625
 21
-344.7207331140504
 31
0.0
  0
LINE
  5
386
330
1F
100
AcDbEntity
  8
0
  6
CENTER
 62
     4
100
AcDbLine
 10
-860.0229672005171
 20
-361.2207331140504
 30
0.0
 11
-850.8845414854532
 21
-361.2207331140504
 31
0.0
  0
LINE
  5
387
330
1F
100
AcDbEntity
  8
0
  6
CENTER
 62
     4
100
AcDbLine
 10
-859.8863121315371
 20
-353.2207331140504
 30
0.0
 11
-850.7400276585131
 21
-353.2207331140504
 31
0.0
  0
LINE
  5
388
330
1F
100
AcDbEntity
  8
LAYER0001
 62
     3
100
AcDbLine
 10
-1351.579284256665
 20
-801.2207331140503
 30
0.0
 11
-1348.976375803665
 21
-801.2207331140503
 31
0.0
  0
LINE
  5
389
330
1F
100
AcDbEntity
  8
LAYER0001
 62
     3
100
AcDbLine
 10
-1263.579284256665
 20
-799.2207331140503
 30
0.0
 11
-1265.436475084665
 21
-799.2207331140503
 31
0.0
  0
LINE
  5
38A
330
1F
100
AcDbEntity
  8
LAYER0001
 62
     3
100
AcDbLine
 10
-1257.073570398665
 20
-786.0873218970503
 30
0.0
 11
-1254.960479090665
 21
-781.5557829620504
 31
0.0
  0
LINE
  5
38B
330
1F
100
AcDbEntity
  8
LAYER0001
 62
     3
100
AcDbLine
 10
-1254.960479090665
 20
-781.5557829620504
 30
0.0
 11
-1256.909284861665
 21
-779.8195064680504
 31
0.0
  0
LINE
  5
38C
330
1F
100
AcDbEntity
  8
LAYER0001
 62
     3
100
AcDbLine
 10
-1257.073570398665
 20
-786.0873218970503
 30
0.0
 11
-1259.656303562665
 21
-785.7105070830503
 31
0.0
  0
ARC
  5
38D
330
1F
100
AcDbEntity
  8
LAYER0001
 62
     3
100
AcDbCircle
 10
-1337.579284256665
 20
-788.2207331140503
 30
0.0
 40
4.0
100
AcDbArc
 50
90.0
 51
149.9999999999999
  0
LINE
  5
38E
330
1F
100
AcDbEntity
  8
LAYER0001
 62
     3
100
AcDbLine
 10
-1259.656303562665
 20
-785.7105070830503
 30
0.0
 11
-1256.909284861665
 21
-779.8195064680504
 31
0.0
  0
LINE
  5
38F
330
1F
100
AcDbEntity
  8
LAYER0001
 62
     3
100
AcDbLine
 10
-1256.909284861665
 20
-779.8195064680504
 30
0.0
 11
-1258.480055672665
 21
-779.6387329680504
 31
0.0
  0
LINE
  5
390
330
1F
100
AcDbEntity
  8
LAYER0001
 62
     3
100
AcDbLine
 10
-1260.804456112665
 20
-784.6234257970505
 30
0.0
 11
-1262.539873562665
 21
-785.2391468430503
 31
0.0
  0
LINE
  5
391
330
1F
100
AcDbEntity
  8
LAYER0001
 62
     3
100
AcDbLine
 10
-1259.656303562665
 20
-785.7105070830503
 30
0.0
 11
-1260.804456112665
 21
-784.6234257970505
 31
0.0
  0
LINE
  5
392
330
1F
100
AcDbEntity
  8
LAYER0001
 62
     3
100
AcDbLine
 10
-1258.480055672665
 20
-779.6387329680504
 30
0.0
 11
-1259.123890822665
 21
-777.9135482150505
 31
0.0
  0
LINE
  5
393
330
1F
100
AcDbEntity
  8
LAYER0001
 62
     3
100
AcDbLine
 10
-1260.804456112665
 20
-784.6234257970505
 30
0.0
 11
-1258.480055672665
 21
-779.6387329680504
 31
0.0
  0
LINE
  5
394
330
1F
100
AcDbEntity
  8
LAYER0001
 62
     3
100
AcDbLine
 10
-1261.685877877665
 20
-783.4077471860503
 30
0.0
 11
-1263.215174938665
 21
-782.6946242540503
 31
0.0
  0
LINE
  5
395
330
1F
100
AcDbEntity
  8
LAYER0001
 62
     3
100
AcDbLine
 10
-1259.977886507665
 20
-779.7449478720503
 30
0.0
 11
-1261.507183568665
 21
-779.0318249410504
 31
0.0
  0
LINE
  5
396
330
1F
100
AcDbEntity
  8
LAYER0001
 62
     3
100
AcDbLine
 10
-1261.829557207665
 20
-784.4555606060503
 30
0.0
 11
-1259.267570152665
 21
-778.9613616360505
 31
0.0
  0
LINE
  5
397
330
1F
100
AcDbEntity
  8
LAYER0001
 62
     3
100
AcDbLine
 10
-1259.123890822665
 20
-777.9135482150505
 30
0.0
 11
-1260.653187883665
 21
-777.2004252840504
 31
0.0
  0
LINE
  5
398
330
1F
100
AcDbEntity
  8
LAYER0001
 62
     3
100
AcDbLine
 10
-1264.069170624665
 20
-784.5260239110503
 30
0.0
 11
-1262.539873562665
 21
-785.2391468430503
 31
0.0
  0
LINE
  5
399
330
1F
100
AcDbEntity
  8
LAYER0001
 62
     3
100
AcDbLine
 10
-1351.579284256665
 20
-797.2207331140503
 30
0.0
 11
-1348.468342513665
 21
-797.2207331140503
 31
0.0
  0
ARC
  5
39A
330
1F
100
AcDbEntity
  8
LAYER0001
 62
     3
100
AcDbCircle
 10
-1263.451010648665
 20
-783.6994644490503
 30
0.0
 40
1.789075924
100
AcDbArc
 50
300.6157525319991
 51
369.3842474679993
  0
ARC
  5
39B
330
1F
100
AcDbEntity
  8
LAYER0001
 62
     3
100
AcDbCircle
 10
-1266.609399676665
 20
-778.8822468810504
 30
0.0
 40
6.687392608999999
100
AcDbArc
 50
317.412046226
 51
352.5879537740001
  0
ARC
  5
39C
330
1F
100
AcDbEntity
  8
LAYER0001
 62
     3
100
AcDbCircle
 10
-1260.889023593665
 20
-778.2052654790505
 30
0.0
 40
1.789075924
100
AcDbArc
 50
300.6157525319991
 51
369.3842474679993
  0
ARC
  5
39D
330
1F
100
AcDbEntity
  8
LAYER0001
 62
     3
100
AcDbCircle
 10
-1339.579284256665
 20
-854.2207331140503
 30
0.0
 40
16.0
100
AcDbArc
 50
172.761713675
 51
270.0
  0
LINE
  5
39E
330
1F
100
AcDbEntity
  8
LAYER0001
 62
     3
100
AcDbLine
 10
-1347.579284256665
 20
-786.2207331140503
 30
0.0
 11
-1347.579284256665
 21
-790.2207331140503
 31
0.0
  0
LINE
  5
39F
330
1F
100
AcDbEntity
  8
LAYER0001
 62
     3
100
AcDbLine
 10
-1262.579284256665
 20
-776.3480088890503
 30
0.0
 11
-1260.670706206665
 21
-777.2379934490505
 31
0.0
  0
LINE
  5
3A0
330
1F
100
AcDbEntity
  8
LAYER0001
 62
     3
100
AcDbLine
 10
-1260.653187883665
 20
-777.2004252840504
 30
0.0
 11
-1264.069170624665
 21
-784.5260239110503
 31
0.0
  0
LINE
  5
3A1
330
1F
100
AcDbEntity
  8
LAYER0001
 62
     3
100
AcDbLine
 10
-1264.051652300665
 20
-784.4884557460503
 30
0.0
 11
-1265.549284255665
 21
-783.7900984960504
 31
0.0
  0
LINE
  5
3A2
330
1F
100
AcDbEntity
  8
LAYER0001
 62
     3
100
AcDbLine
 10
-1270.203224763665
 20
-802.7113963380505
 30
0.0
 11
-1278.315941143665
 21
-828.3327744250503
 31
0.0
  0
LINE
  5
3A3
330
1F
100
AcDbEntity
  8
LAYER0001
 62
     3
100
AcDbLine
 10
-1335.516937284665
 20
-870.2207331140503
 30
0.0
 11
-1339.579284256665
 21
-870.2207331140503
 31
0.0
  0
ARC
  5
3A4
330
1F
100
AcDbEntity
  8
LAYER0001
 62
     3
100
AcDbCircle
 10
-1337.579284256665
 20
-779.2207331140503
 30
0.0
 40
5.0
100
AcDbArc
 50
180.0
 51
270.0
  0
ARC
  5
3A5
330
1F
100
AcDbEntity
  8
LAYER0001
 62
     3
100
AcDbCircle
 10
-1267.579284256665
 20
-779.2207331140503
 30
0.0
 40
5.0
100
AcDbArc
 50
270.0
 51
360.0
  0
LINE
  5
3A6
330
1F
100
AcDbEntity
  8
LAYER0001
 62
     3
100
AcDbLine
 10
-1263.579284256665
 20
-788.2207331140503
 30
0.0
 11
-1263.579284256665
 21
-799.2207331140503
 31
0.0
  0
LINE
  5
3A7
330
1F
100
AcDbEntity
  8
LAYER0001
 62
     3
100
AcDbLine
 10
-1341.043385871665
 20
-786.2207331140503
 30
0.0
 11
-1347.579284256665
 21
-786.2207331140503
 31
0.0
  0
LINE
  5
3A8
330
1F
100
AcDbEntity
  8
LAYER0001
 62
     3
100
AcDbLine
 10
-1351.579284256665
 20
-789.2207331140503
 30
0.0
 11
-1351.579284256665
 21
-801.2207331140503
 31
0.0
  0
ARC
  5
3A9
330
1F
100
AcDbEntity
  8
LAYER0001
 62
     3
100
AcDbCircle
 10
-1267.579284256665
 20
-788.2207331140503
 30
0.0
 40
4.0
100
AcDbArc
 50
0.0
 51
90.0
  0
LINE
  5
3AA
330
1F
100
AcDbEntity
  8
LAYER0001
 62
     3
100
AcDbLine
 10
-1335.079284256665
 20
-768.2207331140503
 30
0.0
 11
-1270.079284256665
 21
-768.2207331140503
 31
0.0
  0
LINE
  5
3AB
330
1F
100
AcDbEntity
  8
LAYER0001
 62
     3
100
AcDbLine
 10
-1337.579284256665
 20
-784.2207331140503
 30
0.0
 11
-1267.579284256665
 21
-784.2207331140503
 31
0.0
  0
LINE
  5
3AC
330
1F
100
AcDbEntity
  8
LAYER0001
 62
     3
100
AcDbLine
 10
-1346.079284256665
 20
-774.2207331140503
 30
0.0
 11
-1259.079284256665
 21
-774.2207331140503
 31
0.0
  0
LINE
  5
3AD
330
1F
100
AcDbEntity
  8
LAYER0001
 62
     3
100
AcDbLine
 10
-1346.079284256665
 20
-774.2207331140503
 30
0.0
 11
-1346.079284256665
 21
-771.2207331140503
 31
0.0
  0
LINE
  5
3AE
330
1F
100
AcDbEntity
  8
LAYER0001
 62
     3
100
AcDbLine
 10
-1259.079284256665
 20
-771.2207331140503
 30
0.0
 11
-1259.079284256665
 21
-774.2207331140503
 31
0.0
  0
LINE
  5
3AF
330
1F
100
AcDbEntity
  8
LAYER0001
 62
     3
100
AcDbLine
 10
-1248.579284256665
 20
-764.2207331140503
 30
0.0
 11
-1356.579284256666
 21
-764.2207331140503
 31
0.0
  0
LINE
  5
3B0
330
1F
100
AcDbEntity
  8
LAYER0001
 62
     3
100
AcDbLine
 10
-1356.579284256666
 20
-764.2207331140503
 30
0.0
 11
-1356.579284256666
 21
-759.2207331140503
 31
0.0
  0
LINE
  5
3B1
330
1F
100
AcDbEntity
  8
LAYER0001
 62
     3
100
AcDbLine
 10
-1248.579284256665
 20
-759.2207331140503
 30
0.0
 11
-1248.579284256665
 21
-764.2207331140503
 31
0.0
  0
LINE
  5
3B2
330
1F
100
AcDbEntity
  8
LAYER0001
 62
     3
100
AcDbLine
 10
-1356.579284256666
 20
-759.2207331140503
 30
0.0
 11
-1248.579284256665
 21
-759.2207331140503
 31
0.0
  0
CIRCLE
  5
3B3
330
1F
100
AcDbEntity
  8
LAYER0001
 62
     3
100
AcDbCircle
 10
-1339.579284256665
 20
-853.2207331140503
 30
0.0
 40
11.0
  0
LINE
  5
3B4
330
1F
100
AcDbEntity
  8
LAYER0001
 62
     3
100
AcDbLine
 10
-1342.579284256665
 20
-774.2207331140503
 30
0.0
 11
-1342.579284256665
 21
-779.2207331140503
 31
0.0
  0
LINE
  5
3B5
330
1F
100
AcDbEntity
  8
LAYER0001
 62
     3
100
AcDbLine
 10
-1262.579284256665
 20
-774.2207331140503
 30
0.0
 11
-1262.579284256665
 21
-779.2207331140503
 31
0.0
  0
LINE
  5
3B6
330
1F
100
AcDbEntity
  8
LAYER0001
 62
     3
100
AcDbLine
 10
-1355.451775925665
 20
-852.2047945720503
 30
0.0
 11
-1347.579284256665
 21
-790.2207331140503
 31
0.0
  0
ARC
  5
3B7
330
1F
100
AcDbEntity
  8
LAYER0001
 62
     3
100
AcDbCircle
 10
-1347.579284256665
 20
-790.2207331140503
 30
0.0
 40
4.0
100
AcDbArc
 50
90.0
 51
180.0
  0
ARC
  5
3B8
330
1F
100
AcDbEntity
  8
LAYER0001
 62
     3
100
AcDbCircle
 10
-1265.436475084665
 20
-804.2207331140503
 30
0.0
 40
5.0
100
AcDbArc
 50
90.0
 51
162.4302046189999
  0
ARC
  5
3B9
330
1F
100
AcDbEntity
  8
LAYER0001
 62
     3
100
AcDbCircle
 10
-1335.516937284665
 20
-810.2207331140503
 30
0.0
 40
60.0
100
AcDbArc
 50
270.0
 51
342.4302046190001
  0
ARC
  5
3BA
330
1F
100
AcDbEntity
  8
LAYER0001
 62
     3
100
AcDbCircle
 10
-1339.579284256665
 20
-853.2207331140503
 30
0.0
 40
50.0
100
AcDbArc
 50
101.2723125463962
 51
364.811833758
  0
ARC
  5
3BB
330
1F
100
AcDbEntity
  8
LAYER0001
 62
     3
100
AcDbCircle
 10
-1339.579284256665
 20
-854.2207331140503
 30
0.0
 40
41.5
100
AcDbArc
 50
105.4391165530925
 51
355.892959598
  0
ARC
  5
3BC
330
1F
100
AcDbEntity
  8
LAYER0001
 62
     3
100
AcDbCircle
 10
-1339.579284256665
 20
-853.2207331140503
 30
0.0
 40
28.9
100
AcDbArc
 50
116.0788992416022
 51
333.4891470079999
  0
LINE
  5
3BD
330
1F
100
AcDbEntity
  8
LAYER0001
 62
     3
100
AcDbLine
 10
-1259.079284256665
 20
-774.2207331140503
 30
0.0
 11
-1259.079284256665
 21
-771.2207331140503
 31
0.0
  0
LINE
  5
3BE
330
1F
100
AcDbEntity
  8
LAYER0001
 62
     3
100
AcDbLine
 10
-463.579284256665
 20
-801.2207331140503
 30
0.0
 11
-466.1821927096648
 21
-801.2207331140503
 31
0.0
  0
LINE
  5
3BF
330
1F
100
AcDbEntity
  8
LAYER0001
 62
     3
100
AcDbLine
 10
-551.579284256665
 20
-799.2207331140503
 30
0.0
 11
-549.7220934286652
 21
-799.2207331140503
 31
0.0
  0
LINE
  5
3C0
330
1F
100
AcDbEntity
  8
LAYER0001
 62
     3
100
AcDbLine
 10
-558.084998114665
 20
-786.0873218970503
 30
0.0
 11
-560.1980894226649
 21
-781.5557829620504
 31
0.0
  0
LINE
  5
3C1
330
1F
100
AcDbEntity
  8
LAYER0001
 62
     3
100
AcDbLine
 10
-560.1980894226649
 20
-781.5557829620504
 30
0.0
 11
-558.2492836516649
 21
-779.8195064680504
 31
0.0
  0
LINE
  5
3C2
330
1F
100
AcDbEntity
  8
LAYER0001
 62
     3
100
AcDbLine
 10
-558.084998114665
 20
-786.0873218970503
 30
0.0
 11
-555.502264950665
 21
-785.7105070830503
 31
0.0
  0
ARC
  5
3C3
330
1F
100
AcDbEntity
  8
LAYER0001
 62
     3
100
AcDbCircle
 10
-477.579284256665
 20
-788.2207331140503
 30
0.0
 40
4.0
100
AcDbArc
 50
30.00000000000012
 51
90.00000000000001
  0
LINE
  5
3C4
330
1F
100
AcDbEntity
  8
LAYER0001
 62
     3
100
AcDbLine
 10
-555.502264950665
 20
-785.7105070830503
 30
0.0
 11
-558.2492836516649
 21
-779.8195064680504
 31
0.0
  0
LINE
  5
3C5
330
1F
100
AcDbEntity
  8
LAYER0001
 62
     3
100
AcDbLine
 10
-558.2492836516649
 20
-779.8195064680504
 30
0.0
 11
-556.678512840665
 21
-779.6387329680504
 31
0.0
  0
LINE
  5
3C6
330
1F
100
AcDbEntity
  8
LAYER0001
 62
     3
100
AcDbLine
 10
-554.3541124006649
 20
-784.6234257970505
 30
0.0
 11
-552.618694950665
 21
-785.2391468430503
 31
0.0
  0
LINE
  5
3C7
330
1F
100
AcDbEntity
  8
LAYER0001
 62
     3
100
AcDbLine
 10
-555.502264950665
 20
-785.7105070830503
 30
0.0
 11
-554.3541124006649
 21
-784.6234257970505
 31
0.0
  0
LINE
  5
3C8
330
1F
100
AcDbEntity
  8
LAYER0001
 62
     3
100
AcDbLine
 10
-556.678512840665
 20
-779.6387329680504
 30
0.0
 11
-556.0346776906652
 21
-777.9135482150505
 31
0.0
  0
LINE
  5
3C9
330
1F
100
AcDbEntity
  8
LAYER0001
 62
     3
100
AcDbLine
 10
-554.3541124006649
 20
-784.6234257970505
 30
0.0
 11
-556.678512840665
 21
-779.6387329680504
 31
0.0
  0
LINE
  5
3CA
330
1F
100
AcDbEntity
  8
LAYER0001
 62
     3
100
AcDbLine
 10
-553.472690635665
 20
-783.4077471860503
 30
0.0
 11
-551.9433935746652
 21
-782.6946242540503
 31
0.0
  0
LINE
  5
3CB
330
1F
100
AcDbEntity
  8
LAYER0001
 62
     3
100
AcDbLine
 10
-555.180682005665
 20
-779.7449478720503
 30
0.0
 11
-553.6513849446651
 21
-779.0318249410504
 31
0.0
  0
LINE
  5
3CC
330
1F
100
AcDbEntity
  8
LAYER0001
 62
     3
100
AcDbLine
 10
-553.3290113056651
 20
-784.4555606060503
 30
0.0
 11
-555.890998360665
 21
-778.9613616360505
 31
0.0
  0
LINE
  5
3CD
330
1F
100
AcDbEntity
  8
LAYER0001
 62
     3
100
AcDbLine
 10
-556.0346776906652
 20
-777.9135482150505
 30
0.0
 11
-554.5053806296651
 21
-777.2004252840504
 31
0.0
  0
LINE
  5
3CE
330
1F
100
AcDbEntity
  8
LAYER0001
 62
     3
100
AcDbLine
 10
-551.089397888665
 20
-784.5260239110503
 30
0.0
 11
-552.618694950665
 21
-785.2391468430503
 31
0.0
  0
LINE
  5
3CF
330
1F
100
AcDbEntity
  8
LAYER0001
 62
     3
100
AcDbLine
 10
-463.579284256665
 20
-797.2207331140503
 30
0.0
 11
-466.690225999665
 21
-797.2207331140503
 31
0.0
  0
ARC
  5
3D0
330
1F
100
AcDbEntity
  8
LAYER0001
 62
     3
100
AcDbCircle
 10
-551.707557864665
 20
-783.6994644490503
 30
0.0
 40
1.789075924
100
AcDbArc
 50
170.6157525320007
 51
239.3842474680009
  0
ARC
  5
3D1
330
1F
100
AcDbEntity
  8
LAYER0001
 62
     3
100
AcDbCircle
 10
-548.5491688366651
 20
-778.8822468810504
 30
0.0
 40
6.687392608999999
100
AcDbArc
 50
187.4120462259998
 51
222.587953774
  0
ARC
  5
3D2
330
1F
100
AcDbEntity
  8
LAYER0001
 62
     3
100
AcDbCircle
 10
-554.2695449196649
 20
-778.2052654790505
 30
0.0
 40
1.789075924
100
AcDbArc
 50
170.6157525320007
 51
239.3842474680009
  0
ARC
  5
3D3
330
1F
100
AcDbEntity
  8
LAYER0001
 62
     3
100
AcDbCircle
 10
-475.579284256665
 20
-854.2207331140503
 30
0.0
 40
16.0
100
AcDbArc
 50
270.0
 51
367.238286325
  0
LINE
  5
3D4
330
1F
100
AcDbEntity
  8
LAYER0001
 62
     3
100
AcDbLine
 10
-467.579284256665
 20
-786.2207331140503
 30
0.0
 11
-467.579284256665
 21
-790.2207331140503
 31
0.0
  0
LINE
  5
3D5
330
1F
100
AcDbEntity
  8
LAYER0001
 62
     3
100
AcDbLine
 10
-552.579284256665
 20
-776.3480088890503
 30
0.0
 11
-554.487862306665
 21
-777.2379934490505
 31
0.0
  0
LINE
  5
3D6
330
1F
100
AcDbEntity
  8
LAYER0001
 62
     3
100
AcDbLine
 10
-554.5053806296651
 20
-777.2004252840504
 30
0.0
 11
-551.089397888665
 21
-784.5260239110503
 31
0.0
  0
LINE
  5
3D7
330
1F
100
AcDbEntity
  8
LAYER0001
 62
     3
100
AcDbLine
 10
-551.1069162126651
 20
-784.4884557460503
 30
0.0
 11
-549.609284257665
 21
-783.7900984960504
 31
0.0
  0
LINE
  5
3D8
330
1F
100
AcDbEntity
  8
LAYER0001
 62
     3
100
AcDbLine
 10
-544.955343749665
 20
-802.7113963380505
 30
0.0
 11
-536.842627369665
 21
-828.3327744250503
 31
0.0
  0
LINE
  5
3D9
330
1F
100
AcDbEntity
  8
LAYER0001
 62
     3
100
AcDbLine
 10
-479.6416312286649
 20
-870.2207331140503
 30
0.0
 11
-475.579284256665
 21
-870.2207331140503
 31
0.0
  0
ARC
  5
3DA
330
1F
100
AcDbEntity
  8
LAYER0001
 62
     3
100
AcDbCircle
 10
-477.579284256665
 20
-779.2207331140503
 30
0.0
 40
5.0
100
AcDbArc
 50
270.0
 51
360.0
  0
ARC
  5
3DB
330
1F
100
AcDbEntity
  8
LAYER0001
 62
     3
100
AcDbCircle
 10
-547.579284256665
 20
-779.2207331140503
 30
0.0
 40
5.0
100
AcDbArc
 50
180.0
 51
270.0
  0
LINE
  5
3DC
330
1F
100
AcDbEntity
  8
LAYER0001
 62
     3
100
AcDbLine
 10
-551.579284256665
 20
-788.2207331140503
 30
0.0
 11
-551.579284256665
 21
-799.2207331140503
 31
0.0
  0
LINE
  5
3DD
330
1F
100
AcDbEntity
  8
LAYER0001
 62
     3
100
AcDbLine
 10
-474.1151826416649
 20
-786.2207331140503
 30
0.0
 11
-467.579284256665
 21
-786.2207331140503
 31
0.0
  0
LINE
  5
3DE
330
1F
100
AcDbEntity
  8
LAYER0001
 62
     3
100
AcDbLine
 10
-463.579284256665
 20
-789.2207331140503
 30
0.0
 11
-463.579284256665
 21
-801.2207331140503
 31
0.0
  0
ARC
  5
3DF
330
1F
100
AcDbEntity
  8
LAYER0001
 62
     3
100
AcDbCircle
 10
-547.579284256665
 20
-788.2207331140503
 30
0.0
 40
4.0
100
AcDbArc
 50
90.00000000000001
 51
180.0
  0
LINE
  5
3E0
330
1F
100
AcDbEntity
  8
LAYER0001
 62
     3
100
AcDbLine
 10
-480.079284256665
 20
-768.2207331140503
 30
0.0
 11
-545.079284256665
 21
-768.2207331140503
 31
0.0
  0
LINE
  5
3E1
330
1F
100
AcDbEntity
  8
LAYER0001
 62
     3
100
AcDbLine
 10
-477.579284256665
 20
-784.2207331140503
 30
0.0
 11
-547.579284256665
 21
-784.2207331140503
 31
0.0
  0
LINE
  5
3E2
330
1F
100
AcDbEntity
  8
LAYER0001
 62
     3
100
AcDbLine
 10
-469.079284256665
 20
-774.2207331140503
 30
0.0
 11
-556.079284256665
 21
-774.2207331140503
 31
0.0
  0
LINE
  5
3E3
330
1F
100
AcDbEntity
  8
LAYER0001
 62
     3
100
AcDbLine
 10
-469.079284256665
 20
-774.2207331140503
 30
0.0
 11
-469.079284256665
 21
-771.2207331140503
 31
0.0
  0
LINE
  5
3E4
330
1F
100
AcDbEntity
  8
LAYER0001
 62
     3
100
AcDbLine
 10
-556.079284256665
 20
-771.2207331140503
 30
0.0
 11
-556.079284256665
 21
-774.2207331140503
 31
0.0
  0
LINE
  5
3E5
330
1F
100
AcDbEntity
  8
LAYER0001
 62
     3
100
AcDbLine
 10
-566.579284256665
 20
-764.2207331140503
 30
0.0
 11
-458.5792842566648
 21
-764.2207331140503
 31
0.0
  0
LINE
  5
3E6
330
1F
100
AcDbEntity
  8
LAYER0001
 62
     3
100
AcDbLine
 10
-458.5792842566648
 20
-764.2207331140503
 30
0.0
 11
-458.5792842566648
 21
-759.2207331140503
 31
0.0
  0
LINE
  5
3E7
330
1F
100
AcDbEntity
  8
LAYER0001
 62
     3
100
AcDbLine
 10
-566.579284256665
 20
-759.2207331140503
 30
0.0
 11
-566.579284256665
 21
-764.2207331140503
 31
0.0
  0
LINE
  5
3E8
330
1F
100
AcDbEntity
  8
LAYER0001
 62
     3
100
AcDbLine
 10
-458.5792842566648
 20
-759.2207331140503
 30
0.0
 11
-566.579284256665
 21
-759.2207331140503
 31
0.0
  0
CIRCLE
  5
3E9
330
1F
100
AcDbEntity
  8
LAYER0001
 62
     3
100
AcDbCircle
 10
-475.579284256665
 20
-853.2207331140503
 30
0.0
 40
11.0
  0
LINE
  5
3EA
330
1F
100
AcDbEntity
  8
LAYER0001
 62
     3
100
AcDbLine
 10
-472.579284256665
 20
-774.2207331140503
 30
0.0
 11
-472.579284256665
 21
-779.2207331140503
 31
0.0
  0
LINE
  5
3EB
330
1F
100
AcDbEntity
  8
LAYER0001
 62
     3
100
AcDbLine
 10
-552.579284256665
 20
-774.2207331140503
 30
0.0
 11
-552.579284256665
 21
-779.2207331140503
 31
0.0
  0
LINE
  5
3EC
330
1F
100
AcDbEntity
  8
LAYER0001
 62
     3
100
AcDbLine
 10
-459.706792587665
 20
-852.2047945720503
 30
0.0
 11
-467.579284256665
 21
-790.2207331140503
 31
0.0
  0
ARC
  5
3ED
330
1F
100
AcDbEntity
  8
LAYER0001
 62
     3
100
AcDbCircle
 10
-467.579284256665
 20
-790.2207331140503
 30
0.0
 40
4.0
100
AcDbArc
 50
0.000000000000007
 51
90.00000000000001
  0
ARC
  5
3EE
330
1F
100
AcDbEntity
  8
LAYER0001
 62
     3
100
AcDbCircle
 10
-549.7220934286652
 20
-804.2207331140503
 30
0.0
 40
5.0
100
AcDbArc
 50
17.56979538100016
 51
90.00000000000001
  0
ARC
  5
3EF
330
1F
100
AcDbEntity
  8
LAYER0001
 62
     3
100
AcDbCircle
 10
-479.6416312286649
 20
-810.2207331140503
 30
0.0
 40
60.0
100
AcDbArc
 50
197.569795381
 51
270.0
  0
ARC
  5
3F0
330
1F
100
AcDbEntity
  8
LAYER0001
 62
     3
100
AcDbCircle
 10
-475.579284256665
 20
-853.2207331140503
 30
0.0
 40
50.0
100
AcDbArc
 50
175.188166242
 51
438.7276874536038
  0
ARC
  5
3F1
330
1F
100
AcDbEntity
  8
LAYER0001
 62
     3
100
AcDbCircle
 10
-475.579284256665
 20
-854.2207331140503
 30
0.0
 40
41.5
100
AcDbArc
 50
184.107040402
 51
434.5608834469075
  0
ARC
  5
3F2
330
1F
100
AcDbEntity
  8
LAYER0001
 62
     3
100
AcDbCircle
 10
-475.579284256665
 20
-853.2207331140503
 30
0.0
 40
28.9
100
AcDbArc
 50
206.5108529920001
 51
423.9211007583978
  0
LINE
  5
3F3
330
1F
100
AcDbEntity
  8
LAYER0001
 62
     3
100
AcDbLine
 10
-556.079284256665
 20
-774.2207331140503
 30
0.0
 11
-556.079284256665
 21
-771.2207331140503
 31
0.0
  0
LINE
  5
3F4
330
1F
100
AcDbEntity
  8
LAYER0001
 62
     3
100
AcDbLine
 10
1448.420715743335
 20
-801.2207331140503
 30
0.0
 11
1451.023624196335
 21
-801.2207331140503
 31
0.0
  0
LINE
  5
3F5
330
1F
100
AcDbEntity
  8
LAYER0001
 62
     3
100
AcDbLine
 10
1536.420715743335
 20
-799.2207331140503
 30
0.0
 11
1534.563524915335
 21
-799.2207331140503
 31
0.0
  0
LINE
  5
3F6
330
1F
100
AcDbEntity
  8
LAYER0001
 62
     3
100
AcDbLine
 10
1542.926429601335
 20
-786.0873218970503
 30
0.0
 11
1545.039520909335
 21
-781.5557829620504
 31
0.0
  0
LINE
  5
3F7
330
1F
100
AcDbEntity
  8
LAYER0001
 62
     3
100
AcDbLine
 10
1545.039520909335
 20
-781.5557829620504
 30
0.0
 11
1543.090715138335
 21
-779.8195064680504
 31
0.0
  0
LINE
  5
3F8
330
1F
100
AcDbEntity
  8
LAYER0001
 62
     3
100
AcDbLine
 10
1542.926429601335
 20
-786.0873218970503
 30
0.0
 11
1540.343696437335
 21
-785.7105070830503
 31
0.0
  0
ARC
  5
3F9
330
1F
100
AcDbEntity
  8
LAYER0001
 62
     3
100
AcDbCircle
 10
1462.420715743335
 20
-788.2207331140503
 30
0.0
 40
4.0
100
AcDbArc
 50
90.0
 51
149.9999999999999
  0
LINE
  5
3FA
330
1F
100
AcDbEntity
  8
LAYER0001
 62
     3
100
AcDbLine
 10
1540.343696437335
 20
-785.7105070830503
 30
0.0
 11
1543.090715138335
 21
-779.8195064680504
 31
0.0
  0
LINE
  5
3FB
330
1F
100
AcDbEntity
  8
LAYER0001
 62
     3
100
AcDbLine
 10
1543.090715138335
 20
-779.8195064680504
 30
0.0
 11
1541.519944327335
 21
-779.6387329680504
 31
0.0
  0
LINE
  5
3FC
330
1F
100
AcDbEntity
  8
LAYER0001
 62
     3
100
AcDbLine
 10
1539.195543887335
 20
-784.6234257970505
 30
0.0
 11
1537.460126437335
 21
-785.2391468430503
 31
0.0
  0
LINE
  5
3FD
330
1F
100
AcDbEntity
  8
LAYER0001
 62
     3
100
AcDbLine
 10
1540.343696437335
 20
-785.7105070830503
 30
0.0
 11
1539.195543887335
 21
-784.6234257970505
 31
0.0
  0
LINE
  5
3FE
330
1F
100
AcDbEntity
  8
LAYER0001
 62
     3
100
AcDbLine
 10
1541.519944327335
 20
-779.6387329680504
 30
0.0
 11
1540.876109177335
 21
-777.9135482150505
 31
0.0
  0
LINE
  5
3FF
330
1F
100
AcDbEntity
  8
LAYER0001
 62
     3
100
AcDbLine
 10
1539.195543887335
 20
-784.6234257970505
 30
0.0
 11
1541.519944327335
 21
-779.6387329680504
 31
0.0
  0
LINE
  5
400
330
1F
100
AcDbEntity
  8
LAYER0001
 62
     3
100
AcDbLine
 10
1538.314122122335
 20
-783.4077471860503
 30
0.0
 11
1536.784825061335
 21
-782.6946242540503
 31
0.0
  0
LINE
  5
401
330
1F
100
AcDbEntity
  8
LAYER0001
 62
     3
100
AcDbLine
 10
1540.022113492335
 20
-779.7449478720503
 30
0.0
 11
1538.492816431335
 21
-779.0318249410504
 31
0.0
  0
LINE
  5
402
330
1F
100
AcDbEntity
  8
LAYER0001
 62
     3
100
AcDbLine
 10
1538.170442792335
 20
-784.4555606060503
 30
0.0
 11
1540.732429847335
 21
-778.9613616360505
 31
0.0
  0
LINE
  5
403
330
1F
100
AcDbEntity
  8
LAYER0001
 62
     3
100
AcDbLine
 10
1540.876109177335
 20
-777.9135482150505
 30
0.0
 11
1539.346812116335
 21
-777.2004252840504
 31
0.0
  0
LINE
  5
404
330
1F
100
AcDbEntity
  8
LAYER0001
 62
     3
100
AcDbLine
 10
1535.930829375335
 20
-784.5260239110503
 30
0.0
 11
1537.460126437335
 21
-785.2391468430503
 31
0.0
  0
LINE
  5
405
330
1F
100
AcDbEntity
  8
LAYER0001
 62
     3
100
AcDbLine
 10
1448.420715743335
 20
-797.2207331140503
 30
0.0
 11
1451.531657486335
 21
-797.2207331140503
 31
0.0
  0
ARC
  5
406
330
1F
100
AcDbEntity
  8
LAYER0001
 62
     3
100
AcDbCircle
 10
1536.548989351335
 20
-783.6994644490503
 30
0.0
 40
1.789075924
100
AcDbArc
 50
300.6157525319991
 51
369.3842474679993
  0
ARC
  5
407
330
1F
100
AcDbEntity
  8
LAYER0001
 62
     3
100
AcDbCircle
 10
1533.390600323335
 20
-778.8822468810504
 30
0.0
 40
6.687392608999999
100
AcDbArc
 50
317.412046226
 51
352.5879537740001
  0
ARC
  5
408
330
1F
100
AcDbEntity
  8
LAYER0001
 62
     3
100
AcDbCircle
 10
1539.110976406335
 20
-778.2052654790505
 30
0.0
 40
1.789075924
100
AcDbArc
 50
300.6157525319991
 51
369.3842474679993
  0
ARC
  5
409
330
1F
100
AcDbEntity
  8
LAYER0001
 62
     3
100
AcDbCircle
 10
1460.420715743335
 20
-854.2207331140503
 30
0.0
 40
16.0
100
AcDbArc
 50
172.761713675
 51
270.0
  0
LINE
  5
40A
330
1F
100
AcDbEntity
  8
LAYER0001
 62
     3
100
AcDbLine
 10
1452.420715743335
 20
-786.2207331140503
 30
0.0
 11
1452.420715743335
 21
-790.2207331140503
 31
0.0
  0
LINE
  5
40B
330
1F
100
AcDbEntity
  8
LAYER0001
 62
     3
100
AcDbLine
 10
1537.420715743335
 20
-776.3480088890503
 30
0.0
 11
1539.329293793335
 21
-777.2379934490505
 31
0.0
  0
LINE
  5
40C
330
1F
100
AcDbEntity
  8
LAYER0001
 62
     3
100
AcDbLine
 10
1539.346812116335
 20
-777.2004252840504
 30
0.0
 11
1535.930829375335
 21
-784.5260239110503
 31
0.0
  0
LINE
  5
40D
330
1F
100
AcDbEntity
  8
LAYER0001
 62
     3
100
AcDbLine
 10
1535.948347699335
 20
-784.4884557460503
 30
0.0
 11
1534.450715744335
 21
-783.7900984960504
 31
0.0
  0
LINE
  5
40E
330
1F
100
AcDbEntity
  8
LAYER0001
 62
     3
100
AcDbLine
 10
1529.796775236335
 20
-802.7113963380505
 30
0.0
 11
1521.684058856335
 21
-828.3327744250503
 31
0.0
  0
LINE
  5
40F
330
1F
100
AcDbEntity
  8
LAYER0001
 62
     3
100
AcDbLine
 10
1464.483062715335
 20
-870.2207331140503
 30
0.0
 11
1460.420715743335
 21
-870.2207331140503
 31
0.0
  0
ARC
  5
410
330
1F
100
AcDbEntity
  8
LAYER0001
 62
     3
100
AcDbCircle
 10
1462.420715743335
 20
-779.2207331140503
 30
0.0
 40
5.0
100
AcDbArc
 50
180.0
 51
270.0
  0
ARC
  5
411
330
1F
100
AcDbEntity
  8
LAYER0001
 62
     3
100
AcDbCircle
 10
1532.420715743335
 20
-779.2207331140503
 30
0.0
 40
5.0
100
AcDbArc
 50
270.0
 51
360.0
  0
LINE
  5
412
330
1F
100
AcDbEntity
  8
LAYER0001
 62
     3
100
AcDbLine
 10
1536.420715743335
 20
-788.2207331140503
 30
0.0
 11
1536.420715743335
 21
-799.2207331140503
 31
0.0
  0
LINE
  5
413
330
1F
100
AcDbEntity
  8
LAYER0001
 62
     3
100
AcDbLine
 10
1458.956614128335
 20
-786.2207331140503
 30
0.0
 11
1452.420715743335
 21
-786.2207331140503
 31
0.0
  0
LINE
  5
414
330
1F
100
AcDbEntity
  8
LAYER0001
 62
     3
100
AcDbLine
 10
1448.420715743335
 20
-789.2207331140503
 30
0.0
 11
1448.420715743335
 21
-801.2207331140503
 31
0.0
  0
ARC
  5
415
330
1F
100
AcDbEntity
  8
LAYER0001
 62
     3
100
AcDbCircle
 10
1532.420715743335
 20
-788.2207331140503
 30
0.0
 40
4.0
100
AcDbArc
 50
0.0
 51
90.0
  0
LINE
  5
416
330
1F
100
AcDbEntity
  8
LAYER0001
 62
     3
100
AcDbLine
 10
1464.920715743335
 20
-768.2207331140503
 30
0.0
 11
1529.920715743335
 21
-768.2207331140503
 31
0.0
  0
LINE
  5
417
330
1F
100
AcDbEntity
  8
LAYER0001
 62
     3
100
AcDbLine
 10
1462.420715743335
 20
-784.2207331140503
 30
0.0
 11
1532.420715743335
 21
-784.2207331140503
 31
0.0
  0
LINE
  5
418
330
1F
100
AcDbEntity
  8
LAYER0001
 62
     3
100
AcDbLine
 10
1453.920715743335
 20
-774.2207331140503
 30
0.0
 11
1540.920715743335
 21
-774.2207331140503
 31
0.0
  0
LINE
  5
419
330
1F
100
AcDbEntity
  8
LAYER0001
 62
     3
100
AcDbLine
 10
1453.920715743335
 20
-774.2207331140503
 30
0.0
 11
1453.920715743335
 21
-771.2207331140503
 31
0.0
  0
LINE
  5
41A
330
1F
100
AcDbEntity
  8
LAYER0001
 62
     3
100
AcDbLine
 10
1540.920715743335
 20
-771.2207331140503
 30
0.0
 11
1540.920715743335
 21
-774.2207331140503
 31
0.0
  0
LINE
  5
41B
330
1F
100
AcDbEntity
  8
LAYER0001
 62
     3
100
AcDbLine
 10
1551.420715743335
 20
-764.2207331140503
 30
0.0
 11
1443.420715743335
 21
-764.2207331140503
 31
0.0
  0
LINE
  5
41C
330
1F
100
AcDbEntity
  8
LAYER0001
 62
     3
100
AcDbLine
 10
1443.420715743335
 20
-764.2207331140503
 30
0.0
 11
1443.420715743335
 21
-759.2207331140503
 31
0.0
  0
LINE
  5
41D
330
1F
100
AcDbEntity
  8
LAYER0001
 62
     3
100
AcDbLine
 10
1551.420715743335
 20
-759.2207331140503
 30
0.0
 11
1551.420715743335
 21
-764.2207331140503
 31
0.0
  0
LINE
  5
41E
330
1F
100
AcDbEntity
  8
LAYER0001
 62
     3
100
AcDbLine
 10
1443.420715743335
 20
-759.2207331140503
 30
0.0
 11
1551.420715743335
 21
-759.2207331140503
 31
0.0
  0
CIRCLE
  5
41F
330
1F
100
AcDbEntity
  8
LAYER0001
 62
     3
100
AcDbCircle
 10
1460.420715743335
 20
-853.2207331140503
 30
0.0
 40
11.0
  0
LINE
  5
420
330
1F
100
AcDbEntity
  8
LAYER0001
 62
     3
100
AcDbLine
 10
1457.420715743335
 20
-774.2207331140503
 30
0.0
 11
1457.420715743335
 21
-779.2207331140503
 31
0.0
  0
LINE
  5
421
330
1F
100
AcDbEntity
  8
LAYER0001
 62
     3
100
AcDbLine
 10
1537.420715743335
 20
-774.2207331140503
 30
0.0
 11
1537.420715743335
 21
-779.2207331140503
 31
0.0
  0
LINE
  5
422
330
1F
100
AcDbEntity
  8
LAYER0001
 62
     3
100
AcDbLine
 10
1444.548224074335
 20
-852.2047945720503
 30
0.0
 11
1452.420715743335
 21
-790.2207331140503
 31
0.0
  0
ARC
  5
423
330
1F
100
AcDbEntity
  8
LAYER0001
 62
     3
100
AcDbCircle
 10
1452.420715743335
 20
-790.2207331140503
 30
0.0
 40
4.0
100
AcDbArc
 50
90.0
 51
180.0
  0
ARC
  5
424
330
1F
100
AcDbEntity
  8
LAYER0001
 62
     3
100
AcDbCircle
 10
1534.563524915335
 20
-804.2207331140503
 30
0.0
 40
5.0
100
AcDbArc
 50
90.0
 51
162.4302046189999
  0
ARC
  5
425
330
1F
100
AcDbEntity
  8
LAYER0001
 62
     3
100
AcDbCircle
 10
1464.483062715335
 20
-810.2207331140503
 30
0.0
 40
60.0
100
AcDbArc
 50
270.0
 51
342.4302046190001
  0
ARC
  5
426
330
1F
100
AcDbEntity
  8
LAYER0001
 62
     3
100
AcDbCircle
 10
1460.420715743335
 20
-853.2207331140503
 30
0.0
 40
50.0
100
AcDbArc
 50
101.2723125463962
 51
364.811833758
  0
ARC
  5
427
330
1F
100
AcDbEntity
  8
LAYER0001
 62
     3
100
AcDbCircle
 10
1460.420715743335
 20
-854.2207331140503
 30
0.0
 40
41.5
100
AcDbArc
 50
105.4391165530925
 51
355.892959598
  0
ARC
  5
428
330
1F
100
AcDbEntity
  8
LAYER0001
 62
     3
100
AcDbCircle
 10
1460.420715743335
 20
-853.2207331140503
 30
0.0
 40
28.9
100
AcDbArc
 50
116.0788992416022
 51
333.4891470079999
  0
LINE
  5
429
330
1F
100
AcDbEntity
  8
LAYER0001
 62
     3
100
AcDbLine
 10
1540.920715743335
 20
-774.2207331140503
 30
0.0
 11
1540.920715743335
 21
-771.2207331140503
 31
0.0
  0
LINE
  5
42A
330
1F
100
AcDbEntity
  8
LAYER0001
  6
CENTER
 62
     4
100
AcDbLine
 10
-1264.681869188665
 20
-779.7810691090504
 30
0.0
 11
-1255.057831517665
 21
-784.2688315770504
 31
0.0
  0
LINE
  5
42B
330
1F
100
AcDbEntity
  8
LAYER0001
  6
CENTER
 62
     4
100
AcDbLine
 10
-1342.579284256665
 20
-757.2713448988947
 30
0.0
 11
-1342.579284256665
 21
-774.2207331140503
 31
0.0
  0
LINE
  5
42C
330
1F
100
AcDbEntity
  8
LAYER0001
  6
CENTER
 62
     4
100
AcDbLine
 10
-1395.992555079665
 20
-853.2207331140503
 30
0.0
 11
-1282.609657623665
 21
-853.2207331140503
 31
0.0
  0
LINE
  5
42D
330
1F
100
AcDbEntity
  8
LAYER0001
  6
CENTER
 62
     4
100
AcDbLine
 10
-1339.579284256665
 20
-800.7207331140503
 30
0.0
 11
-1339.579284256665
 21
-911.2984701980504
 31
0.0
  0
LINE
  5
42E
330
1F
100
AcDbEntity
  8
LAYER0001
  6
CENTER
 62
     4
100
AcDbLine
 10
-1262.579284256665
 20
-757.2713448988947
 30
0.0
 11
-1262.579284256665
 21
-774.2207331140503
 31
0.0
  0
LINE
  5
42F
330
1F
100
AcDbEntity
  8
LAYER0001
  6
CENTER
 62
     4
100
AcDbLine
 10
-550.4766993246649
 20
-779.7810691090504
 30
0.0
 11
-560.1007369956651
 21
-784.2688315770504
 31
0.0
  0
LINE
  5
430
330
1F
100
AcDbEntity
  8
LAYER0001
  6
CENTER
 62
     4
100
AcDbLine
 10
-472.579284256665
 20
-757.2713448988947
 30
0.0
 11
-472.579284256665
 21
-774.2207331140503
 31
0.0
  0
LINE
  5
431
330
1F
100
AcDbEntity
  8
LAYER0001
  6
CENTER
 62
     4
100
AcDbLine
 10
-419.1660134336648
 20
-853.2207331140503
 30
0.0
 11
-532.548910889665
 21
-853.2207331140503
 31
0.0
  0
LINE
  5
432
330
1F
100
AcDbEntity
  8
LAYER0001
  6
CENTER
 62
     4
100
AcDbLine
 10
-475.579284256665
 20
-800.7207331140503
 30
0.0
 11
-475.579284256665
 21
-911.2984701980504
 31
0.0
  0
LINE
  5
433
330
1F
100
AcDbEntity
  8
LAYER0001
  6
CENTER
 62
     4
100
AcDbLine
 10
-552.579284256665
 20
-757.2713448988947
 30
0.0
 11
-552.579284256665
 21
-774.2207331140503
 31
0.0
  0
LINE
  5
434
330
1F
100
AcDbEntity
  8
LAYER0001
  6
CENTER
 62
     4
100
AcDbLine
 10
1535.318130811335
 20
-779.7810691090504
 30
0.0
 11
1544.942168482335
 21
-784.2688315770504
 31
0.0
  0
LINE
  5
435
330
1F
100
AcDbEntity
  8
LAYER0001
  6
CENTER
 62
     4
100
AcDbLine
 10
1457.420715743335
 20
-757.2713448988947
 30
0.0
 11
1457.420715743335
 21
-774.2207331140503
 31
0.0
  0
LINE
  5
436
330
1F
100
AcDbEntity
  8
LAYER0001
  6
CENTER
 62
     4
100
AcDbLine
 10
1404.007444920335
 20
-853.2207331140503
 30
0.0
 11
1517.390342376335
 21
-853.2207331140503
 31
0.0
  0
LINE
  5
437
330
1F
100
AcDbEntity
  8
LAYER0001
  6
CENTER
 62
     4
100
AcDbLine
 10
1460.420715743335
 20
-800.7207331140503
 30
0.0
 11
1460.420715743335
 21
-911.2984701980504
 31
0.0
  0
LINE
  5
438
330
1F
100
AcDbEntity
  8
LAYER0001
  6
CENTER
 62
     4
100
AcDbLine
 10
1537.420715743335
 20
-757.2713448988947
 30
0.0
 11
1537.420715743335
 21
-774.2207331140503
 31
0.0
  0
LINE
  5
439
330
1F
100
AcDbEntity
  8
LAYER0240
  6
CENTER
 62
     4
100
AcDbLine
 10
-1617.579284256668
 20
-335.9709337336387
 30
0.0
 11
-1617.579284256668
 21
-321.6219398937554
 31
0.0
  0
LINE
  5
43A
330
1F
100
AcDbEntity
  8
LAYER0240
  6
CENTER
 62
     4
100
AcDbLine
 10
-1397.579284256662
 20
-335.9709337336387
 30
0.0
 11
-1397.579284256662
 21
-321.6219398937554
 31
0.0
  0
LINE
  5
43B
330
1F
100
AcDbEntity
  8
LAYER0240
  6
CENTER
 62
     4
100
AcDbLine
 10
-197.5792842566621
 20
-335.9709337336387
 30
0.0
 11
-197.5792842566621
 21
-321.6219398937554
 31
0.0
  0
LINE
  5
43C
330
1F
100
AcDbEntity
  8
LAYER0240
  6
CENTER
 62
     4
100
AcDbLine
 10
-417.579284256668
 20
-335.9709337336387
 30
0.0
 11
-417.579284256668
 21
-321.6219398937554
 31
0.0
  0
LINE
  5
43D
330
1F
100
AcDbEntity
  8
LAYER0240
  6
CENTER
 62
     4
100
AcDbLine
 10
1182.420715743332
 20
-335.9709337336386
 30
0.0
 11
1182.420715743332
 21
-321.6219398937553
 31
0.0
  0
LINE
  5
43E
330
1F
100
AcDbEntity
  8
LAYER0240
  6
CENTER
 62
     4
100
AcDbLine
 10
1402.420715743338
 20
-335.9709337336386
 30
0.0
 11
1402.420715743338
 21
-321.6219398937553
 31
0.0
  0
LINE
  5
43F
330
1F
100
AcDbEntity
  8
LAYER0240
  6
CENTER
 62
     4
100
AcDbLine
 10
2002.420715743338
 20
-335.9709337336386
 30
0.0
 11
2002.420715743338
 21
-321.6219398937553
 31
0.0
  0
LINE
  5
440
330
1F
100
AcDbEntity
  8
LAYER0240
  6
CENTER
 62
     4
100
AcDbLine
 10
1782.420715743332
 20
-335.9709337336386
 30
0.0
 11
1782.420715743332
 21
-321.6219398937553
 31
0.0
  0
INSERT
  5
441
330
1F
100
AcDbEntity
  8
LAYER0032
  6
CONTINUOUS
100
AcDbBlockReference
  2
DC_GROUP_2
 10
0.0
 20
0.0
 30
0.0
  0
INSERT
  5
442
330
1F
100
AcDbEntity
  8
LAYER0032
  6
CONTINUOUS
100
AcDbBlockReference
  2
DC_GROUP_3
 10
0.0
 20
0.0
 30
0.0
  0
INSERT
  5
443
330
1F
100
AcDbEntity
  8
LAYER0032
  6
CONTINUOUS
100
AcDbBlockReference
  2
DC_GROUP_4
 10
0.0
 20
0.0
 30
0.0
  0
INSERT
  5
444
330
1F
100
AcDbEntity
  8
LAYER0032
  6
CONTINUOUS
100
AcDbBlockReference
  2
DC_GROUP_5
 10
0.0
 20
0.0
 30
0.0
  0
INSERT
  5
445
330
1F
100
AcDbEntity
  8
LAYER0032
  6
CONTINUOUS
100
AcDbBlockReference
  2
DC_GROUP_16
 10
0.0
 20
0.0
 30
0.0
  0
INSERT
  5
446
330
1F
100
AcDbEntity
  8
LAYER0032
  6
CONTINUOUS
100
AcDbBlockReference
  2
DC_GROUP_17
 10
0.0
 20
0.0
 30
0.0
  0
INSERT
  5
447
330
1F
100
AcDbEntity
  8
LAYER0032
  6
CONTINUOUS
100
AcDbBlockReference
  2
DC_GROUP_18
 10
0.0
 20
0.0
 30
0.0
  0
CIRCLE
  5
448
330
1F
100
AcDbEntity
  8
LAYER0016
 62
   150
100
AcDbCircle
 10
1592.42071574334
 20
-498.2207331140501
 30
0.0
 40
21.0
  0
LINE
  5
449
330
1F
100
AcDbEntity
  8
LAYER0016
 62
   150
100
AcDbLine
 10
1598.92071574334
 20
-578.2207331140501
 30
0.0
 11
1585.92071574334
 21
-578.2207331140501
 31
0.0
  0
LINE
  5
44A
330
1F
100
AcDbEntity
  8
LAYER0016
 62
   150
100
AcDbLine
 10
1598.92071574334
 20
-584.2207331140501
 30
0.0
 11
1585.92071574334
 21
-584.2207331140501
 31
0.0
  0
ARC
  5
44B
330
1F
100
AcDbEntity
  8
LAYER0016
 62
   150
100
AcDbCircle
 10
1598.92071574334
 20
-568.2207331140501
 30
0.0
 40
10.0
100
AcDbArc
 50
270.0
 51
360.0
  0
ARC
  5
44C
330
1F
100
AcDbEntity
  8
LAYER0016
 62
   150
100
AcDbCircle
 10
1585.92071574334
 20
-568.2207331140501
 30
0.0
 40
10.0
100
AcDbArc
 50
180.0
 51
270.0
  0
LINE
  5
44D
330
1F
100
AcDbEntity
  8
LAYER0016
 62
   150
100
AcDbLine
 10
1598.92071574334
 20
-578.2207331140501
 30
0.0
 11
1598.92071574334
 21
-584.2207331140501
 31
0.0
  0
LINE
  5
44E
330
1F
100
AcDbEntity
  8
LAYER0016
 62
   150
100
AcDbLine
 10
1585.92071574334
 20
-578.2207331140501
 30
0.0
 11
1585.92071574334
 21
-584.2207331140501
 31
0.0
  0
LINE
  5
44F
330
1F
100
AcDbEntity
  8
LAYER0016
 62
   150
100
AcDbLine
 10
1608.92071574334
 20
-522.2207331140503
 30
0.0
 11
1608.92071574334
 21
-568.2207331140501
 31
0.0
  0
LINE
  5
450
330
1F
100
AcDbEntity
  8
LAYER0016
 62
   150
100
AcDbLine
 10
1575.92071574334
 20
-522.2207331140501
 30
0.0
 11
1575.92071574334
 21
-568.2207331140501
 31
0.0
  0
LINE
  5
451
330
1F
100
AcDbEntity
  8
LAYER0016
 62
   150
100
AcDbLine
 10
1611.92071574334
 20
-522.2207331140503
 30
0.0
 11
1572.92071574334
 21
-522.2207331140501
 31
0.0
  0
LINE
  5
452
330
1F
100
AcDbEntity
  8
LAYER0016
 62
   150
100
AcDbLine
 10
1572.92071574334
 20
-522.2207331140501
 30
0.0
 11
1572.92071574334
 21
-506.01496174811
 31
0.0
  0
LINE
  5
453
330
1F
100
AcDbEntity
  8
LAYER0016
 62
   150
100
AcDbLine
 10
1611.92071574334
 20
-506.0149617481101
 30
0.0
 11
1611.92071574334
 21
-522.2207331140503
 31
0.0
  0
LINE
  5
454
330
1F
100
AcDbEntity
  8
LAYER0016
 62
   150
100
AcDbLine
 10
1593.42071574334
 20
-585.2207331140501
 30
0.0
 11
1593.42071574334
 21
-586.2207331140501
 31
0.0
  0
LINE
  5
455
330
1F
100
AcDbEntity
  8
LAYER0016
 62
   150
100
AcDbLine
 10
1592.92071574334
 20
-584.2207331140501
 30
0.0
 11
1592.92071574334
 21
-585.2207331140501
 31
0.0
  0
LINE
  5
456
330
1F
100
AcDbEntity
  8
LAYER0016
 62
   150
100
AcDbLine
 10
1591.92071574334
 20
-585.2207331140501
 30
0.0
 11
1591.92071574334
 21
-584.2207331140501
 31
0.0
  0
LINE
  5
457
330
1F
100
AcDbEntity
  8
LAYER0016
 62
   150
100
AcDbLine
 10
1593.42071574334
 20
-585.2207331140501
 30
0.0
 11
1591.42071574334
 21
-585.2207331140501
 31
0.0
  0
LINE
  5
458
330
1F
100
AcDbEntity
  8
LAYER0016
 62
   150
100
AcDbLine
 10
1591.42071574334
 20
-586.2207331140501
 30
0.0
 11
1591.42071574334
 21
-585.2207331140501
 31
0.0
  0
LINE
  5
459
330
1F
100
AcDbEntity
  8
LAYER0016
 62
   150
100
AcDbLine
 10
1593.42071574334
 20
-586.2207331140501
 30
0.0
 11
1591.42071574334
 21
-586.2207331140501
 31
0.0
  0
LINE
  5
45A
330
1F
100
AcDbEntity
  8
LAYER0016
 62
   150
100
AcDbLine
 10
1606.42071574334
 20
-437.2207331140502
 30
0.0
 11
1578.42071574334
 21
-437.2207331140501
 31
0.0
  0
LINE
  5
45B
330
1F
100
AcDbEntity
  8
LAYER0016
 62
   150
100
AcDbLine
 10
1578.42071574334
 20
-462.2207331140501
 30
0.0
 11
1578.42071574334
 21
-437.2207331140501
 31
0.0
  0
LINE
  5
45C
330
1F
100
AcDbEntity
  8
LAYER0016
 62
   150
100
AcDbLine
 10
1606.42071574334
 20
-462.2207331140502
 30
0.0
 11
1578.42071574334
 21
-462.2207331140501
 31
0.0
  0
LINE
  5
45D
330
1F
100
AcDbEntity
  8
LAYER0016
 62
   150
100
AcDbLine
 10
1606.42071574334
 20
-437.2207331140502
 30
0.0
 11
1606.42071574334
 21
-462.2207331140502
 31
0.0
  0
LINE
  5
45E
330
1F
100
AcDbEntity
  8
LAYER0016
 62
   150
100
AcDbLine
 10
1603.92071574334
 20
-462.2207331140502
 30
0.0
 11
1603.92071574334
 21
-465.7207331140502
 31
0.0
  0
LINE
  5
45F
330
1F
100
AcDbEntity
  8
LAYER0016
 62
   150
100
AcDbLine
 10
1580.92071574334
 20
-465.7207331140501
 30
0.0
 11
1580.92071574334
 21
-462.2207331140501
 31
0.0
  0
LINE
  5
460
330
1F
100
AcDbEntity
  8
LAYER0016
 62
   150
100
AcDbLine
 10
1611.92071574334
 20
-465.7207331140502
 30
0.0
 11
1572.92071574334
 21
-465.7207331140501
 31
0.0
  0
LINE
  5
461
330
1F
100
AcDbEntity
  8
LAYER0016
 62
   150
100
AcDbLine
 10
1614.42071574334
 20
-454.2207331140502
 30
0.0
 11
1606.42071574334
 21
-454.2207331140502
 31
0.0
  0
LINE
  5
462
330
1F
100
AcDbEntity
  8
LAYER0016
 62
   150
100
AcDbLine
 10
1578.42071574334
 20
-454.2207331140501
 30
0.0
 11
1570.42071574334
 21
-454.2207331140501
 31
0.0
  0
ARC
  5
463
330
1F
100
AcDbEntity
  8
LAYER0016
 62
   150
100
AcDbCircle
 10
1614.42071574334
 20
-457.2207331140502
 30
0.0
 40
3.0
100
AcDbArc
 50
360.0
 51
450.0
  0
ARC
  5
464
330
1F
100
AcDbEntity
  8
LAYER0016
 62
   150
100
AcDbCircle
 10
1570.42071574334
 20
-457.2207331140501
 30
0.0
 40
3.0
100
AcDbArc
 50
89.99999999999999
 51
180.0
  0
LINE
  5
465
330
1F
100
AcDbEntity
  8
LAYER0016
 62
   150
100
AcDbLine
 10
1617.42071574334
 20
-457.2207331140502
 30
0.0
 11
1617.42071574334
 21
-474.2207331140502
 31
0.0
  0
LINE
  5
466
330
1F
100
AcDbEntity
  8
LAYER0016
 62
   150
100
AcDbLine
 10
1567.42071574334
 20
-457.2207331140501
 30
0.0
 11
1567.42071574334
 21
-474.2207331140502
 31
0.0
  0
CIRCLE
  5
467
330
1F
100
AcDbEntity
  8
LAYER0016
 62
   150
100
AcDbCircle
 10
1636.92071574334
 20
-491.7207331140502
 30
0.0
 40
3.0
  0
CIRCLE
  5
468
330
1F
100
AcDbEntity
  8
LAYER0016
 62
   150
100
AcDbCircle
 10
1636.92071574334
 20
-491.7207331140502
 30
0.0
 40
2.0
  0
LINE
  5
469
330
1F
100
AcDbEntity
  8
LAYER0016
 62
   150
100
AcDbLine
 10
1633.92071574334
 20
-491.2207331140493
 30
0.0
 11
1631.42071574334
 21
-491.2207331140493
 31
0.0
  0
LINE
  5
46A
330
1F
100
AcDbEntity
  8
LAYER0016
 62
   150
100
AcDbLine
 10
1631.42071574334
 20
-491.2207331140493
 30
0.0
 11
1631.42071574334
 21
-507.7207331140502
 31
0.0
  0
LINE
  5
46B
330
1F
100
AcDbEntity
  8
LAYER0016
 62
   150
100
AcDbLine
 10
1633.92071574334
 20
-491.2207331140493
 30
0.0
 11
1633.92071574334
 21
-505.2207331140502
 31
0.0
  0
LINE
  5
46C
330
1F
100
AcDbEntity
  8
LAYER0016
 62
   150
100
AcDbLine
 10
1639.92071574334
 20
-507.7207331140502
 30
0.0
 11
1639.92071574334
 21
-510.7207331140502
 31
0.0
  0
LINE
  5
46D
330
1F
100
AcDbEntity
  8
LAYER0016
 62
   150
100
AcDbLine
 10
1642.92071574334
 20
-469.7207331140502
 30
0.0
 11
1642.92071574334
 21
-479.7207331140502
 31
0.0
  0
LINE
  5
46E
330
1F
100
AcDbEntity
  8
LAYER0016
 62
   150
100
AcDbLine
 10
1639.42071574334
 20
-479.7207331140502
 30
0.0
 11
1639.42071574334
 21
-484.7207331140502
 31
0.0
  0
LINE
  5
46F
330
1F
100
AcDbEntity
  8
LAYER0016
 62
   150
100
AcDbLine
 10
1637.42071574334
 20
-484.7207331140502
 30
0.0
 11
1637.42071574334
 21
-488.7207331140502
 31
0.0
  0
LINE
  5
470
330
1F
100
AcDbEntity
  8
LAYER0016
 62
   150
100
AcDbLine
 10
1631.42071574334
 20
-491.7207331140513
 30
0.0
 11
1624.92071574334
 21
-491.7207331140513
 31
0.0
  0
LINE
  5
471
330
1F
100
AcDbEntity
  8
LAYER0016
 62
   150
100
AcDbLine
 10
1624.92071574334
 20
-491.7207331140513
 30
0.0
 11
1624.92071574334
 21
-504.7207331140513
 31
0.0
  0
LINE
  5
472
330
1F
100
AcDbEntity
  8
LAYER0016
 62
   150
100
AcDbLine
 10
1631.42071574334
 20
-504.7207331140513
 30
0.0
 11
1624.92071574334
 21
-504.7207331140513
 31
0.0
  0
LINE
  5
473
330
1F
100
AcDbEntity
  8
LAYER0016
 62
   150
100
AcDbLine
 10
1621.92071574334
 20
-505.2207331140502
 30
0.0
 11
1618.92071574334
 21
-505.2207331140502
 31
0.0
  0
LINE
  5
474
330
1F
100
AcDbEntity
  8
LAYER0016
 62
   150
100
AcDbLine
 10
1621.92071574334
 20
-491.2207331140502
 30
0.0
 11
1621.92071574334
 21
-505.2207331140502
 31
0.0
  0
LINE
  5
475
330
1F
100
AcDbEntity
  8
LAYER0016
 62
   150
100
AcDbLine
 10
1618.92071574334
 20
-491.2207331140502
 30
0.0
 11
1618.92071574334
 21
-505.2207331140502
 31
0.0
  0
LINE
  5
476
330
1F
100
AcDbEntity
  8
LAYER0016
 62
   150
100
AcDbLine
 10
1621.92071574334
 20
-491.2207331140502
 30
0.0
 11
1618.92071574334
 21
-491.2207331140502
 31
0.0
  0
LINE
  5
477
330
1F
100
AcDbEntity
  8
LAYER0016
 62
   150
100
AcDbLine
 10
1618.92071574334
 20
-492.2207331140502
 30
0.0
 11
1612.545327540838
 21
-492.2207331140502
 31
0.0
  0
LINE
  5
478
330
1F
100
AcDbEntity
  8
LAYER0016
 62
   150
100
AcDbLine
 10
1618.92071574334
 20
-504.2207331140502
 30
0.0
 11
1612.545327540838
 21
-504.2207331140502
 31
0.0
  0
LINE
  5
479
330
1F
100
AcDbEntity
  8
LAYER0016
 62
   150
100
AcDbLine
 10
1562.92071574334
 20
-505.2207331140502
 30
0.0
 11
1565.92071574334
 21
-505.2207331140502
 31
0.0
  0
LINE
  5
47A
330
1F
100
AcDbEntity
  8
LAYER0016
 62
   150
100
AcDbLine
 10
1562.92071574334
 20
-491.2207331140502
 30
0.0
 11
1562.92071574334
 21
-505.2207331140502
 31
0.0
  0
LINE
  5
47B
330
1F
100
AcDbEntity
  8
LAYER0016
 62
   150
100
AcDbLine
 10
1565.92071574334
 20
-491.2207331140502
 30
0.0
 11
1565.92071574334
 21
-505.2207331140502
 31
0.0
  0
LINE
  5
47C
330
1F
100
AcDbEntity
  8
LAYER0016
 62
   150
100
AcDbLine
 10
1562.92071574334
 20
-491.2207331140502
 30
0.0
 11
1565.92071574334
 21
-491.2207331140502
 31
0.0
  0
LINE
  5
47D
330
1F
100
AcDbEntity
  8
LAYER0016
 62
   150
100
AcDbLine
 10
1565.92071574334
 20
-492.2207331140502
 30
0.0
 11
1572.296103945842
 21
-492.2207331140502
 31
0.0
  0
LINE
  5
47E
330
1F
100
AcDbEntity
  8
LAYER0016
 62
   150
100
AcDbLine
 10
1565.92071574334
 20
-504.2207331140502
 30
0.0
 11
1572.296103945842
 21
-504.2207331140502
 31
0.0
  0
LINE
  5
47F
330
1F
100
AcDbEntity
  8
LAYER0016
 62
   150
100
AcDbLine
 10
1624.92071574334
 20
-503.2207331140502
 30
0.0
 11
1621.92071574334
 21
-503.2207331140502
 31
0.0
  0
LINE
  5
480
330
1F
100
AcDbEntity
  8
LAYER0016
 62
   150
100
AcDbLine
 10
1624.92071574334
 20
-493.2207331140502
 30
0.0
 11
1621.92071574334
 21
-493.2207331140502
 31
0.0
  0
LINE
  5
481
330
1F
100
AcDbEntity
  8
LAYER0016
 62
   150
100
AcDbLine
 10
1558.92071574334
 20
-492.2207331140504
 30
0.0
 11
1560.42071574334
 21
-492.2207331140504
 31
0.0
  0
LINE
  5
482
330
1F
100
AcDbEntity
  8
LAYER0016
 62
   150
100
AcDbLine
 10
1558.92071574334
 20
-504.2207331140504
 30
0.0
 11
1558.92071574334
 21
-492.2207331140504
 31
0.0
  0
LINE
  5
483
330
1F
100
AcDbEntity
  8
LAYER0016
 62
   150
100
AcDbLine
 10
1560.42071574334
 20
-504.2207331140504
 30
0.0
 11
1560.42071574334
 21
-492.2207331140504
 31
0.0
  0
LINE
  5
484
330
1F
100
AcDbEntity
  8
LAYER0016
 62
   150
100
AcDbLine
 10
1560.42071574334
 20
-504.2207331140504
 30
0.0
 11
1558.92071574334
 21
-504.2207331140504
 31
0.0
  0
LINE
  5
485
330
1F
100
AcDbEntity
  8
LAYER0016
 62
   150
100
AcDbLine
 10
1562.92071574334
 20
-503.2207331140504
 30
0.0
 11
1561.42071574334
 21
-503.2207331140504
 31
0.0
  0
LINE
  5
486
330
1F
100
AcDbEntity
  8
LAYER0016
 62
   150
100
AcDbLine
 10
1561.42071574334
 20
-493.2207331140504
 30
0.0
 11
1562.92071574334
 21
-493.2207331140504
 31
0.0
  0
LINE
  5
487
330
1F
100
AcDbEntity
  8
LAYER0016
 62
   150
100
AcDbLine
 10
1561.42071574334
 20
-503.2207331140504
 30
0.0
 11
1561.42071574334
 21
-493.2207331140504
 31
0.0
  0
LINE
  5
488
330
1F
100
AcDbEntity
  8
LAYER0016
 62
   150
100
AcDbLine
 10
1561.42071574334
 20
-502.2207331140504
 30
0.0
 11
1560.42071574334
 21
-502.2207331140504
 31
0.0
  0
LINE
  5
489
330
1F
100
AcDbEntity
  8
LAYER0016
 62
   150
100
AcDbLine
 10
1561.42071574334
 20
-494.2207331140504
 30
0.0
 11
1560.42071574334
 21
-494.2207331140504
 31
0.0
  0
LINE
  5
48A
330
1F
100
AcDbEntity
  8
LAYER0016
 62
   150
100
AcDbLine
 10
1567.42071574334
 20
-472.7207331140502
 30
0.0
 11
1617.42071574334
 21
-472.7207331140502
 31
0.0
  0
LINE
  5
48B
330
1F
100
AcDbEntity
  8
LAYER0016
 62
   150
100
AcDbLine
 10
1617.42071574334
 20
-474.2207331140502
 30
0.0
 11
1567.42071574334
 21
-474.2207331140502
 31
0.0
  0
LINE
  5
48C
330
1F
100
AcDbEntity
  8
LAYER0016
 62
   150
100
AcDbLine
 10
1572.92071574334
 20
-490.4265044799902
 30
0.0
 11
1572.92071574334
 21
-474.2207331140502
 31
0.0
  0
LINE
  5
48D
330
1F
100
AcDbEntity
  8
LAYER0016
 62
   150
100
AcDbLine
 10
1572.92071574334
 20
-472.7207331140502
 30
0.0
 11
1572.92071574334
 21
-465.7207331140501
 31
0.0
  0
LINE
  5
48E
330
1F
100
AcDbEntity
  8
LAYER0016
 62
   150
100
AcDbLine
 10
1611.92071574334
 20
-465.7207331140502
 30
0.0
 11
1611.92071574334
 21
-472.7207331140502
 31
0.0
  0
LINE
  5
48F
330
1F
100
AcDbEntity
  8
LAYER0016
 62
   150
100
AcDbLine
 10
1611.92071574334
 20
-474.2207331140502
 30
0.0
 11
1611.92071574334
 21
-490.4265044799903
 31
0.0
  0
LINE
  5
490
330
1F
100
AcDbEntity
  8
LAYER0016
 62
   150
100
AcDbLine
 10
1631.42071574334
 20
-507.7207331140502
 30
0.0
 11
1659.42071574334
 21
-507.7207331140502
 31
0.0
  0
LINE
  5
491
330
1F
100
AcDbEntity
  8
LAYER0016
 62
   150
100
AcDbLine
 10
1633.92071574334
 20
-505.2207331140502
 30
0.0
 11
1656.92071574334
 21
-505.2207331140502
 31
0.0
  0
CIRCLE
  5
492
330
1F
100
AcDbEntity
  8
LAYER0016
 62
   150
100
AcDbCircle
 10
1653.92071574334
 20
-491.7207331140502
 30
0.0
 40
3.0
  0
CIRCLE
  5
493
330
1F
100
AcDbEntity
  8
LAYER0016
 62
   150
100
AcDbCircle
 10
1653.92071574334
 20
-491.7207331140502
 30
0.0
 40
2.0
  0
LINE
  5
494
330
1F
100
AcDbEntity
  8
LAYER0016
 62
   150
100
AcDbLine
 10
1639.92071574334
 20
-491.2207331140502
 30
0.0
 11
1650.92071574334
 21
-491.2207331140502
 31
0.0
  0
LINE
  5
495
330
1F
100
AcDbEntity
  8
LAYER0016
 62
   150
100
AcDbLine
 10
1656.92071574334
 20
-491.2207331140493
 30
0.0
 11
1659.42071574334
 21
-491.2207331140493
 31
0.0
  0
LINE
  5
496
330
1F
100
AcDbEntity
  8
LAYER0016
 62
   150
100
AcDbLine
 10
1659.42071574334
 20
-507.7207331140502
 30
0.0
 11
1659.42071574334
 21
-491.2207331140493
 31
0.0
  0
LINE
  5
497
330
1F
100
AcDbEntity
  8
LAYER0016
 62
   150
100
AcDbLine
 10
1656.92071574334
 20
-491.2207331140493
 30
0.0
 11
1656.92071574334
 21
-505.2207331140502
 31
0.0
  0
LINE
  5
498
330
1F
100
AcDbEntity
  8
LAYER0016
 62
   150
100
AcDbLine
 10
1653.92071574334
 20
-488.7207331140502
 30
0.0
 11
1636.92071574334
 21
-488.7207331140502
 31
0.0
  0
LINE
  5
499
330
1F
100
AcDbEntity
  8
LAYER0016
 62
   150
100
AcDbLine
 10
1650.92071574334
 20
-507.7207331140502
 30
0.0
 11
1650.92071574334
 21
-510.7207331140502
 31
0.0
  0
LINE
  5
49A
330
1F
100
AcDbEntity
  8
LAYER0016
 62
   150
100
AcDbLine
 10
1639.92071574334
 20
-510.7207331140502
 30
0.0
 11
1650.92071574334
 21
-510.7207331140502
 31
0.0
  0
LINE
  5
49B
330
1F
100
AcDbEntity
  8
LAYER0016
 62
   150
100
AcDbLine
 10
1659.42071574334
 20
-491.7207331140502
 30
0.0
 11
1667.42071574334
 21
-491.7207331140502
 31
0.0
  0
LINE
  5
49C
330
1F
100
AcDbEntity
  8
LAYER0016
 62
   150
100
AcDbLine
 10
1667.42071574334
 20
-491.7207331140502
 30
0.0
 11
1667.42071574334
 21
-504.7207331140502
 31
0.0
  0
LINE
  5
49D
330
1F
100
AcDbEntity
  8
LAYER0016
 62
   150
100
AcDbLine
 10
1659.42071574334
 20
-504.7207331140502
 30
0.0
 11
1667.42071574334
 21
-504.7207331140502
 31
0.0
  0
LINE
  5
49E
330
1F
100
AcDbEntity
  8
LAYER0016
 62
   150
100
AcDbLine
 10
1669.92071574334
 20
-492.2207331140502
 30
0.0
 11
1669.92071574334
 21
-504.2207331140502
 31
0.0
  0
LINE
  5
49F
330
1F
100
AcDbEntity
  8
LAYER0016
 62
   150
100
AcDbLine
 10
1667.42071574334
 20
-493.2207331140502
 30
0.0
 11
1668.92071574334
 21
-493.2207331140502
 31
0.0
  0
LINE
  5
4A0
330
1F
100
AcDbEntity
  8
LAYER0016
 62
   150
100
AcDbLine
 10
1668.92071574334
 20
-503.2207331140502
 30
0.0
 11
1667.42071574334
 21
-503.2207331140502
 31
0.0
  0
LINE
  5
4A1
330
1F
100
AcDbEntity
  8
LAYER0016
 62
   150
100
AcDbLine
 10
1668.92071574334
 20
-493.2207331140502
 30
0.0
 11
1668.92071574334
 21
-503.2207331140502
 31
0.0
  0
LINE
  5
4A2
330
1F
100
AcDbEntity
  8
LAYER0016
 62
   150
100
AcDbLine
 10
1668.92071574334
 20
-494.2207331140502
 30
0.0
 11
1669.92071574334
 21
-494.2207331140502
 31
0.0
  0
LINE
  5
4A3
330
1F
100
AcDbEntity
  8
LAYER0016
 62
   150
100
AcDbLine
 10
1668.92071574334
 20
-502.2207331140502
 30
0.0
 11
1669.92071574334
 21
-502.2207331140502
 31
0.0
  0
LINE
  5
4A4
330
1F
100
AcDbEntity
  8
LAYER0016
 62
   150
100
AcDbLine
 10
1642.92071574334
 20
-469.7207331140502
 30
0.0
 11
1647.92071574334
 21
-469.7207331140502
 31
0.0
  0
LINE
  5
4A5
330
1F
100
AcDbEntity
  8
LAYER0016
 62
   150
100
AcDbLine
 10
1647.92071574334
 20
-469.7207331140502
 30
0.0
 11
1647.92071574334
 21
-479.7207331140502
 31
0.0
  0
LINE
  5
4A6
330
1F
100
AcDbEntity
  8
LAYER0016
 62
   150
100
AcDbLine
 10
1651.42071574334
 20
-479.7207331140502
 30
0.0
 11
1651.42071574334
 21
-484.7207331140502
 31
0.0
  0
LINE
  5
4A7
330
1F
100
AcDbEntity
  8
LAYER0016
 62
   150
100
AcDbLine
 10
1639.42071574334
 20
-479.7207331140502
 30
0.0
 11
1651.42071574334
 21
-479.7207331140502
 31
0.0
  0
LINE
  5
4A8
330
1F
100
AcDbEntity
  8
LAYER0016
 62
   150
100
AcDbLine
 10
1637.42071574334
 20
-484.7207331140502
 30
0.0
 11
1653.42071574334
 21
-484.7207331140502
 31
0.0
  0
LINE
  5
4A9
330
1F
100
AcDbEntity
  8
LAYER0016
 62
   150
100
AcDbLine
 10
1653.42071574334
 20
-484.7207331140502
 30
0.0
 11
1653.42071574334
 21
-488.7207331140502
 31
0.0
  0
LINE
  5
4AA
330
1F
100
AcDbEntity
  8
LAYER0016
 62
   150
100
AcDbLine
 10
1671.42071574334
 20
-504.2207331140502
 30
0.0
 11
1669.92071574334
 21
-504.2207331140502
 31
0.0
  0
LINE
  5
4AB
330
1F
100
AcDbEntity
  8
LAYER0016
 62
   150
100
AcDbLine
 10
1671.42071574334
 20
-492.2207331140502
 30
0.0
 11
1671.42071574334
 21
-504.2207331140502
 31
0.0
  0
LINE
  5
4AC
330
1F
100
AcDbEntity
  8
LAYER0016
 62
   150
100
AcDbLine
 10
1669.92071574334
 20
-492.2207331140502
 30
0.0
 11
1671.42071574334
 21
-492.2207331140502
 31
0.0
  0
LINE
  5
4AD
330
1F
100
AcDbEntity
  8
LAYER0016
  6
CENTER
 62
     4
100
AcDbLine
 10
1645.42071574334
 20
-466.563031833486
 30
0.0
 11
1645.42071574334
 21
-513.6447433473823
 31
0.0
  0
VIEWPORT
  5
2F
330
1B
100
AcDbEntity
 67
     1
  8
0
100
AcDbViewport
 10
99.88173932173049
 20
-57.70657100587823
 30
0.0
 40
11655.23385852963
 41
7848.436175280432
 68
     1
 69
     1
1001
ACAD
1000
MVIEW
1002
{
1070
    16
1010
0.0
1020
0.0
1030
0.0
1010
0.0
1020
0.0
1030
1.0
1040
0.0
1040
7848.436175280432
1040
99.88173932173049
1040
-57.70657100587823
1040
50.0
1040
0.0
1040
0.0
1070
     0
1070
   100
1070
     0
1070
     1
1070
     0
1070
     0
1070
     0
1070
     0
1040
0.0
1040
0.0
1040
0.0
1040
0.5
1040
0.5
1040
0.0
1040
0.0
1070
     0
1002
{
1002
}
1002
}
  0
ENDSEC
  0
SECTION
  2
OBJECTS
  0
DICTIONARY
  5
C
330
0
100
AcDbDictionary
  3
ACAD_GROUP
350
D
  3
ACAD_LAYOUT
350
1A
  3
ACAD_MLINESTYLE
350
17
  3
ACAD_PLOTSETTINGS
350
19
  3
ACDBHEADERROUNDTRIPXREC
350
4AE
  0
DICTIONARY
  5
D
102
{ACAD_REACTORS
330
C
102
}
330
C
100
AcDbDictionary
  0
DICTIONARY
  5
1A
102
{ACAD_REACTORS
330
C
102
}
330
C
100
AcDbDictionary
  0
DICTIONARY
  5
17
102
{ACAD_REACTORS
330
C
102
}
330
C
100
AcDbDictionary
  3
STANDARD
350
18
  0
DICTIONARY
  5
19
102
{ACAD_REACTORS
330
C
102
}
330
C
100
AcDbDictionary
  0
DICTIONARY
  5
4AE
102
{ACAD_REACTORS
330
C
102
}
330
C
100
AcDbDictionary
  3
CEPSNTYPE
350
4B7
  3
DIMSTYLEDATA
350
4CD
  3
FINGERPRINTGUID
350
4B8
  3
HYPERLINKBASE
350
4B1
  3
INSUNITS
350
4B6
  3
LAYOUTDICT
350
4B3
  3
LWETCUNION
350
4B5
  3
PLOTSETDICT
350
4B4
  3
PSVPSCALE
350
4BA
  3
PUCSBASE
350
4BD
  3
PUCSORGBACK
350
4C3
  3
PUCSORGBOTTOM
350
4BF
  3
PUCSORGFRONT
350
4C2
  3
PUCSORGLEFT
350
4C0
  3
PUCSORGRIGHT
350
4C1
  3
PUCSORGTOP
350
4BE
  3
PUCSORTHOREF
350
4BB
  3
PUCSORTHOVIEW
350
4BC
  3
STYLESHEET
350
4B2
  3
TSTACKALIGN
350
4AF
  3
TSTACKSIZE
350
4B0
  3
UCSBASE
350
4C6
  3
UCSORGBACK
350
4CC
  3
UCSORGBOTTOM
350
4C8
  3
UCSORGFRONT
350
4CB
  3
UCSORGLEFT
350
4C9
  3
UCSORGRIGHT
350
4CA
  3
UCSORGTOP
350
4C7
  3
UCSORTHOREF
350
4C4
  3
UCSORTHOVIEW
350
4C5
  3
VERSIONGUID
350
4B9
  0
MLINESTYLE
  5
18
102
{ACAD_REACTORS
330
17
102
}
330
17
100
AcDbMlineStyle
  2
Standard
 70
     0
  3

 62
   256
 51
90.0
 52
90.0
 71
     2
 49
0.5
 62
   256
  6
BYLAYER
 49
-0.5
 62
   256
  6
BYLAYER
  0
XRECORD
  5
4B7
102
{ACAD_REACTORS
330
4AE
102
}
330
4AE
100
AcDbXrecord
 90
        0
  0
XRECORD
  5
4CD
102
{ACAD_REACTORS
330
4AE
102
}
330
4AE
100
AcDbXrecord
1000
DSTYLE
1002
{
1070
   171
 70
     2
1070
   143
 40
25.4
1070
   274
 70
     2
1070
    41
 40
30.0
1070
   141
 40
0.09
1070
   271
 70
     4
1070
    43
 40
0.38
1070
    44
 40
0.18
1070
   278
 70
    46
1070
    42
 40
0.0625
1070
   147
 40
0.09
1070
    77
 70
     3
1070
   272
 70
     4
1070
    73
 70
     1
1070
   172
 70
     0
1070
    74
 70
     1
1070
   283
 70
     1
1070
   340
340
11
1070
   140
 40
0.18
1070
   284
 70
     0
1070
    78
 70
     0
1002
}
  0
XRECORD
  5
4B8
102
{ACAD_REACTORS
330
4AE
102
}
330
4AE
100
AcDbXrecord
  1
{7F64BF2B-84C3-4B00-9893-C06717B70052}
  0
XRECORD
  5
4B1
102
{ACAD_REACTORS
330
4AE
102
}
330
4AE
100
AcDbXrecord
  1

  0
XRECORD
  5
4B6
102
{ACAD_REACTORS
330
4AE
102
}
330
4AE
100
AcDbXrecord
 90
        4
  0
XRECORD
  5
4B3
102
{ACAD_REACTORS
330
4AE
102
}
330
4AE
100
AcDbXrecord
340
1A
  0
XRECORD
  5
4B5
102
{ACAD_REACTORS
330
4AE
102
}
330
4AE
100
AcDbXrecord
 90
    10781
  0
XRECORD
  5
4B4
102
{ACAD_REACTORS
330
4AE
102
}
330
4AE
100
AcDbXrecord
340
19
  0
XRECORD
  5
4BA
102
{ACAD_REACTORS
330
4AE
102
}
330
4AE
100
AcDbXrecord
 40
0.0
  0
XRECORD
  5
4BD
102
{ACAD_REACTORS
330
4AE
102
}
330
4AE
100
AcDbXrecord
340
0
  0
XRECORD
  5
4C3
102
{ACAD_REACTORS
330
4AE
102
}
330
4AE
100
AcDbXrecord
 10
0.0
 20
0.0
 30
0.0
  0
XRECORD
  5
4BF
102
{ACAD_REACTORS
330
4AE
102
}
330
4AE
100
AcDbXrecord
 10
0.0
 20
0.0
 30
0.0
  0
XRECORD
  5
4C2
102
{ACAD_REACTORS
330
4AE
102
}
330
4AE
100
AcDbXrecord
 10
0.0
 20
0.0
 30
0.0
  0
XRECORD
  5
4C0
102
{ACAD_REACTORS
330
4AE
102
}
330
4AE
100
AcDbXrecord
 10
0.0
 20
0.0
 30
0.0
  0
XRECORD
  5
4C1
102
{ACAD_REACTORS
330
4AE
102
}
330
4AE
100
AcDbXrecord
 10
0.0
 20
0.0
 30
0.0
  0
XRECORD
  5
4BE
102
{ACAD_REACTORS
330
4AE
102
}
330
4AE
100
AcDbXrecord
 10
0.0
 20
0.0
 30
0.0
  0
XRECORD
  5
4BB
102
{ACAD_REACTORS
330
4AE
102
}
330
4AE
100
AcDbXrecord
340
0
  0
XRECORD
  5
4BC
102
{ACAD_REACTORS
330
4AE
102
}
330
4AE
100
AcDbXrecord
 70
     0
  0
XRECORD
  5
4B2
102
{ACAD_REACTORS
330
4AE
102
}
330
4AE
100
AcDbXrecord
  1

  0
XRECORD
  5
4AF
102
{ACAD_REACTORS
330
4AE
102
}
330
4AE
100
AcDbXrecord
 90
        1
  0
XRECORD
  5
4B0
102
{ACAD_REACTORS
330
4AE
102
}
330
4AE
100
AcDbXrecord
 90
       70
  0
XRECORD
  5
4C6
102
{ACAD_REACTORS
330
4AE
102
}
330
4AE
100
AcDbXrecord
340
0
  0
XRECORD
  5
4CC
102
{ACAD_REACTORS
330
4AE
102
}
330
4AE
100
AcDbXrecord
 10
0.0
 20
0.0
 30
0.0
  0
XRECORD
  5
4C8
102
{ACAD_REACTORS
330
4AE
102
}
330
4AE
100
AcDbXrecord
 10
0.0
 20
0.0
 30
0.0
  0
XRECORD
  5
4CB
102
{ACAD_REACTORS
330
4AE
102
}
330
4AE
100
AcDbXrecord
 10
0.0
 20
0.0
 30
0.0
  0
XRECORD
  5
4C9
102
{ACAD_REACTORS
330
4AE
102
}
330
4AE
100
AcDbXrecord
 10
0.0
 20
0.0
 30
0.0
  0
XRECORD
  5
4CA
102
{ACAD_REACTORS
330
4AE
102
}
330
4AE
100
AcDbXrecord
 10
0.0
 20
0.0
 30
0.0
  0
XRECORD
  5
4C7
102
{ACAD_REACTORS
330
4AE
102
}
330
4AE
100
AcDbXrecord
 10
0.0
 20
0.0
 30
0.0
  0
XRECORD
  5
4C4
102
{ACAD_REACTORS
330
4AE
102
}
330
4AE
100
AcDbXrecord
340
0
  0
XRECORD
  5
4C5
102
{ACAD_REACTORS
330
4AE
102
}
330
4AE
100
AcDbXrecord
 70
     0
  0
XRECORD
  5
4B9
102
{ACAD_REACTORS
330
4AE
102
}
330
4AE
100
AcDbXrecord
  1
{FAEB1C32-E019-11D5-929B-00C0DF256EC4}
  0
ENDSEC
  0
EOF
