  0
SECTION
  2
HEADER
  9
$ACADVER
  1
AC1014
  9
$ACADMAINTVER
 70
               0
  9
$DWGCODEPAGE
  3
ANSI_932
  9
$INSBASE
 10
0.0
 20
0.0
 30
0.0
  9
$EXTMIN
 10
-1414.5582964591863
 20
-1409.4986093640809
 30
0.0
  9
$EXTMAX
 10
1474.5617035408136
 20
1136.4213906359191
 30
0.0
  9
$LIMMIN
 10
-1504.8432964591864
 20
-1489.0586093640809
  9
$LIMMAX
 10
1564.8467035408137
 20
1215.9813906359191
  9
$ORTHOMODE
 70
               0
  9
$REGENMODE
 70
               1
  9
$FILLMODE
 70
               1
  9
$QTEXTMODE
 70
               0
  9
$MIRRTEXT
 70
               1
  9
$DRAGMODE
 70
               2
  9
$LTSCALE
 40
1.0
  9
$OSMODE
 70
               0
  9
$ATTMODE
 70
               1
  9
$TEXTSIZE
 40
0.2
  9
$TRACEWID
 40
0.05
  9
$TEXTSTYLE
  7
STANDARD
  9
$CLAYER
  8
0
  9
$CELTYPE
  6
CONTINUOUS
  9
$CECOLOR
 62
             256
  9
$CELTSCALE
 40
1.0
  9
$DELOBJ
 70
               1
  9
$DISPSILH
 70
               0
  9
$DIMSCALE
 40
1.0
  9
$DIMASZ
 40
0.18
  9
$DIMEXO
 40
0.0625
  9
$DIMDLI
 40
0.38
  9
$DIMRND
 40
0.0
  9
$DIMDLE
 40
0.0
  9
$DIMEXE
 40
0.18
  9
$DIMTP
 40
0.0
  9
$DIMTM
 40
0.0
  9
$DIMTXT
 40
0.18
  9
$DIMCEN
 40
0.09
  9
$DIMTSZ
 40
0.0
  9
$DIMTOL
 70
               0
  9
$DIMLIM
 70
               0
  9
$DIMTIH
 70
               1
  9
$DIMTOH
 70
               1
  9
$DIMSE1
 70
               0
  9
$DIMSE2
 70
               0
  9
$DIMTAD
 70
               0
  9
$DIMZIN
 70
               0
  9
$DIMBLK
  1

  9
$DIMASO
 70
               1
  9
$DIMSHO
 70
               1
  9
$DIMPOST
  1

  9
$DIMAPOST
  1

  9
$DIMALT
 70
               0
  9
$DIMALTD
 70
               2
  9
$DIMALTF
 40
25.399999999999999
  9
$DIMLFAC
 40
1.0
  9
$DIMTOFL
 70
               0
  9
$DIMTVP
 40
0.0
  9
$DIMTIX
 70
               0
  9
$DIMSOXD
 70
               0
  9
$DIMSAH
 70
               0
  9
$DIMBLK1
  1

  9
$DIMBLK2
  1

  9
$DIMSTYLE
  2
STANDARD
  9
$DIMCLRD
 70
               0
  9
$DIMCLRE
 70
               0
  9
$DIMCLRT
 70
               0
  9
$DIMTFAC
 40
1.0
  9
$DIMGAP
 40
0.09
  9
$DIMJUST
 70
               0
  9
$DIMSD1
 70
               0
  9
$DIMSD2
 70
               0
  9
$DIMTOLJ
 70
               1
  9
$DIMTZIN
 70
               0
  9
$DIMALTZ
 70
               0
  9
$DIMALTTZ
 70
               0
  9
$DIMFIT
 70
               3
  9
$DIMUPT
 70
               0
  9
$DIMUNIT
 70
               2
  9
$DIMDEC
 70
               4
  9
$DIMTDEC
 70
               4
  9
$DIMALTU
 70
               2
  9
$DIMALTTD
 70
               2
  9
$DIMTXSTY
  7
STANDARD
  9
$DIMAUNIT
 70
               0
  9
$LUNITS
 70
               2
  9
$LUPREC
 70
               4
  9
$SKETCHINC
 40
0.1
  9
$FILLETRAD
 40
0.0
  9
$AUNITS
 70
               0
  9
$AUPREC
 70
               0
  9
$MENU
  1
acad
  9
$ELEVATION
 40
0.0
  9
$PELEVATION
 40
0.0
  9
$THICKNESS
 40
0.0
  9
$LIMCHECK
 70
               0
  9
$BLIPMODE
 70
               1
  9
$CHAMFERA
 40
0.0
  9
$CHAMFERB
 40
0.0
  9
$CHAMFERC
 40
0.0
  9
$CHAMFERD
 40
0.0
  9
$SKPOLY
 70
               0
  9
$TDCREATE
 40
0.000000000
  9
$TDUPDATE
 40
0.000000000
  9
$TDINDWG
 40
0.0000000000
  9
$TDUSRTIMER
 40
0.0000000000
  9
$USRTIMER
 70
               1
  9
$ANGBASE
 50
0.0
  9
$ANGDIR
 70
               0
  9
$PDMODE
 70
               0
  9
$PDSIZE
 40
1.0
  9
$PLINEWID
 40
0.0
  9
$COORDS
 70
               1
  9
$SPLFRAME
 70
               0
  9
$SPLINETYPE
 70
               6
  9
$SPLINESEGS
 70
               8
  9
$ATTDIA
 70
               0
  9
$ATTREQ
 70
               1
  9
$HANDLING
 70
               1
  9
$HANDSEED
  5
4E3
  9
$SURFTAB1
 70
               6
  9
$SURFTAB2
 70
               6
  9
$SURFTYPE
 70
               6
  9
$SURFU
 70
               6
  9
$SURFV
 70
               6
  9
$UCSNAME
  2

  9
$UCSORG
 10
0.0
 20
0.0
 30
0.0
  9
$UCSXDIR
 10
1.0
 20
0.0
 30
0.0
  9
$UCSYDIR
 10
0.0
 20
1.0
 30
0.0
  9
$PUCSNAME
  2

  9
$PUCSORG
 10
0.0
 20
0.0
 30
0.0
  9
$PUCSXDIR
 10
1.0
 20
0.0
 30
0.0
  9
$PUCSYDIR
 10
0.0
 20
1.0
 30
0.0
  9
$USERI1
 70
               0
  9
$USERI2
 70
               0
  9
$USERI3
 70
               0
  9
$USERI4
 70
               0
  9
$USERI5
 70
               0
  9
$USERR1
 40
0.0
  9
$USERR2
 40
0.0
  9
$USERR3
 40
0.0
  9
$USERR4
 40
0.0
  9
$USERR5
 40
0.0
  9
$WORLDVIEW
 70
               1
  9
$SHADEDGE
 70
               3
  9
$SHADEDIF
 70
              70
  9
$TILEMODE
 70
               1
  9
$MAXACTVP
 70
              16
  9
$PINSBASE
 10
0.0
 20
0.0
 30
0.0
  9
$PLIMCHECK
 70
               0
  9
$PEXTMIN
 10
1.0000000000000000E+20
 20
1.0000000000000000E+20
 30
1.0000000000000000E+20
  9
$PEXTMAX
 10
-1.0000000000000000E+20
 20
-1.0000000000000000E+20
 30
-1.0000000000000000E+20
  9
$PLIMMIN
 10
0.0
 20
0.0
  9
$PLIMMAX
 10
12.0
 20
9.0
  9
$UNITMODE
 70
               0
  9
$VISRETAIN
 70
               0
  9
$PLINEGEN
 70
               1
  9
$PSLTSCALE
 70
               0
  9
$TREEDEPTH
 70
            3020
  9
$PICKSTYLE
 70
               1
  9
$CMLSTYLE
  2
STANDARD
  9
$CMLJUST
 70
               0
  9
$CMLSCALE
 40
1.0
  9
$PROXYGRAPHICS
 70
               0
  9
$MEASUREMENT
 70
               0
  0
ENDSEC
  0
SECTION
  2
CLASSES
  0
CLASS
  1
LWPOLYLINE
  2
AcDbPolyline
  3
"AutoCAD"
 90
        0
280
               0
281
               1
  0
CLASS
  1
IMAGE
  2
AcDbRasterImage
  3
ISM
 90
      127
280
               0
281
               1
  0
CLASS
  1
OLE2FRAME
  2
AcDbOle2Frame
  3
""
 90
        0
280
               0
281
               1
  0
CLASS
  1
HATCH
  2
AcDbHatch
  3
"ACAD_SEDONA"
 90
        0
280
               0
281
               1
  0
CLASS
  1
DICTIONARYVAR
  2
AcDbDictionaryVar
  3
"AutoCAD"
 90
        0
280
               0
281
               0
  0
CLASS
  1
RASTERVARIABLES
  2
AcDbRasterVariables
  3
ISM
 90
        0
280
               0
281
               0
  0
CLASS
  1
IMAGEDEF
  2
AcDbRasterImageDef
  3
ISM
 90
        0
280
               0
281
               0
  0
CLASS
  1
IMAGEDEF_REACTOR
  2
AcDbRasterImageDefReactor
  3
ISM
 90
        1
280
               0
281
               0
  0
CLASS
  1
IDBUFFER
  2
AcDbIdBuffer
  3
"Acad"
 90
        0
280
               0
281
               0
  0
CLASS
  1
SPATIAL_FILTER
  2
AcDbSpatialFilter
  3
"Acad"
 90
        0
280
               0
281
               0
  0
CLASS
  1
XRECORD
  2
AcDbXrecord
  3
"<Built In>"
 90
        0
280
               0
281
               0
  0
CLASS
  1
SORTENTSTABLE
  2
AcDbSortentsTable
  3
"AutoCAD"
 90
        0
280
               0
281
               0
  0
CLASS
  1
LAYER_INDEX
  2
AcDbLayerIndex
  3
"Acad"
 90
        0
280
               0
281
               0
  0
CLASS
  1
SPATIAL_INDEX
  2
AcDbSpatialIndex
  3
"Acad"
 90
        0
280
               0
281
               0
  0
CLASS
  1
OBJECT_PTR
  2
CAseDLPNTableRecord
  3
"ASE-LPNTableRecord"
 90
        1
280
               0
281
               0
  0
ENDSEC
  0
SECTION
  2
TABLES
  0
TABLE
  2
VPORT
  5
7
100
AcDbSymbolTable
 70
               1
  0
VPORT
  5
15
100
AcDbSymbolTableRecord
100
AcDbViewportTableRecord
  2
*ACTIVE
 70
               0
 10
0.0
 20
0.0
 11
1.0
 21
1.0
 12
30.001703540813651
 22
-136.53860936408091
 13
0.0
 23
0.0
 14
1.0
 24
1.0
 15
0.0
 25
0.0
 16
0.0
 26
0.0
 36
1.0
 17
0.0
 27
0.0
 37
0.0
 40
2705.04
 41
1.1348039215686274
 42
50.0
 43
0.0
 44
0.0
 50
0.0
 51
0.0
 71
               0
 72
             100
 73
               1
 74
               1
 75
               0
 76
               0
 77
               0
 78
               0
  0
ENDTAB
  0
TABLE
  2
LTYPE
  5
4
100
AcDbSymbolTable
 70
              28
  0
LTYPE
  5
11
100
AcDbSymbolTableRecord
100
AcDbLinetypeTableRecord
  2
BYBLOCK
 70
               0
  3

 72
              65
 73
               0
 40
0.0
  0
LTYPE
  5
12
100
AcDbSymbolTableRecord
100
AcDbLinetypeTableRecord
  2
BYLAYER
 70
               0
  3

 72
              65
 73
               0
 40
0.0
  0
LTYPE
  5
13
100
AcDbSymbolTableRecord
100
AcDbLinetypeTableRecord
  2
CONTINUOUS
 70
               0
  3
Solid line
 72
              65
 73
               0
 40
0.0
  0
LTYPE
  5
1D
100
AcDbSymbolTableRecord
100
AcDbLinetypeTableRecord
  2
HIDDENX2
 70
               0
  3
CADPAC FUSION LINETYPE
 72
              65
 73
               2
 40
168.0
 49
126.0
 74
               0
 49
-42.0
 74
               0
  0
LTYPE
  5
1E
100
AcDbSymbolTableRecord
100
AcDbLinetypeTableRecord
  2
HIDDEN
 70
               0
  3
CADPAC FUSION LINETYPE
 72
              65
 73
               2
 40
126.0
 49
84.0
 74
               0
 49
-42.0
 74
               0
  0
LTYPE
  5
1F
100
AcDbSymbolTableRecord
100
AcDbLinetypeTableRecord
  2
HIDDEN2
 70
               0
  3
CADPAC FUSION LINETYPE
 72
              65
 73
               2
 40
105.0
 49
63.0
 74
               0
 49
-42.0
 74
               0
  0
LTYPE
  5
20
100
AcDbSymbolTableRecord
100
AcDbLinetypeTableRecord
  2
DASHED
 70
               0
  3
CADPAC FUSION LINETYPE
 72
              65
 73
               2
 40
126.0
 49
84.0
 74
               0
 49
-42.0
 74
               0
  0
LTYPE
  5
21
100
AcDbSymbolTableRecord
100
AcDbLinetypeTableRecord
  2
DASHED2
 70
               0
  3
CADPAC FUSION LINETYPE
 72
              65
 73
               2
 40
94.5
 49
63.0
 74
               0
 49
-31.5
 74
               0
  0
LTYPE
  5
22
100
AcDbSymbolTableRecord
100
AcDbLinetypeTableRecord
  2
DASHEDX2
 70
               0
  3
CADPAC FUSION LINETYPE
 72
              65
 73
               2
 40
189.0
 49
126.0
 74
               0
 49
-63.0
 74
               0
  0
LTYPE
  5
23
100
AcDbSymbolTableRecord
100
AcDbLinetypeTableRecord
  2
DOTX2
 70
               0
  3
CADPAC FUSION LINETYPE
 72
              65
 73
               2
 40
52.5
 49
0.0
 74
               0
 49
-52.5
 74
               0
  0
LTYPE
  5
24
100
AcDbSymbolTableRecord
100
AcDbLinetypeTableRecord
  2
DOT
 70
               0
  3
CADPAC FUSION LINETYPE
 72
              65
 73
               2
 40
42.0
 49
0.0
 74
               0
 49
-42.0
 74
               0
  0
LTYPE
  5
25
100
AcDbSymbolTableRecord
100
AcDbLinetypeTableRecord
  2
DOTS
 70
               0
  3
CADPAC FUSION LINETYPE
 72
              65
 73
               2
 40
42.0
 49
0.0
 74
               0
 49
-42.0
 74
               0
  0
LTYPE
  5
26
100
AcDbSymbolTableRecord
100
AcDbLinetypeTableRecord
  2
DOT2
 70
               0
  3
CADPAC FUSION LINETYPE
 72
              65
 73
               2
 40
31.5
 49
0.0
 74
               0
 49
-31.5
 74
               0
  0
LTYPE
  5
27
100
AcDbSymbolTableRecord
100
AcDbLinetypeTableRecord
  2
CENTERX2
 70
               0
  3
CADPAC FUSION LINETYPE
 72
              65
 73
               4
 40
252.0
 49
105.0
 74
               0
 49
-52.5
 74
               0
 49
42.0
 74
               0
 49
-52.5
 74
               0
  0
LTYPE
  5
28
100
AcDbSymbolTableRecord
100
AcDbLinetypeTableRecord
  2
CENTER
 70
               0
  3
CADPAC FUSION LINETYPE
 72
              65
 73
               4
 40
193.19999999999999
 49
84.0
 74
               0
 49
-42.0
 74
               0
 49
25.199999999999999
 74
               0
 49
-42.0
 74
               0
  0
LTYPE
  5
29
100
AcDbSymbolTableRecord
100
AcDbLinetypeTableRecord
  2
CENTER2
 70
               0
  3
CADPAC FUSION LINETYPE
 72
              65
 73
               4
 40
134.40000000000001
 49
63.0
 74
               0
 49
-31.5
 74
               0
 49
8.4000000000000004
 74
               0
 49
-31.5
 74
               0
  0
LTYPE
  5
2A
100
AcDbSymbolTableRecord
100
AcDbLinetypeTableRecord
  2
DASHDOTX2
 70
               0
  3
CADPAC FUSION LINETYPE
 72
              65
 73
               4
 40
210.0
 49
105.0
 74
               0
 49
-52.5
 74
               0
 49
0.0
 74
               0
 49
-52.5
 74
               0
  0
LTYPE
  5
2B
100
AcDbSymbolTableRecord
100
AcDbLinetypeTableRecord
  2
DASHDOT
 70
               0
  3
CADPAC FUSION LINETYPE
 72
              65
 73
               4
 40
168.0
 49
84.0
 74
               0
 49
-42.0
 74
               0
 49
0.0
 74
               0
 49
-42.0
 74
               0
  0
LTYPE
  5
2C
100
AcDbSymbolTableRecord
100
AcDbLinetypeTableRecord
  2
DASHDOT2
 70
               0
  3
CADPAC FUSION LINETYPE
 72
              65
 73
               4
 40
126.0
 49
63.0
 74
               0
 49
-31.5
 74
               0
 49
0.0
 74
               0
 49
-31.5
 74
               0
  0
LTYPE
  5
2D
100
AcDbSymbolTableRecord
100
AcDbLinetypeTableRecord
  2
DIVIDEX2
 70
               0
  3
CADPAC FUSION LINETYPE
 72
              65
 73
               6
 40
262.5
 49
105.0
 74
               0
 49
-52.5
 74
               0
 49
0.0
 74
               0
 49
-52.5
 74
               0
 49
0.0
 74
               0
 49
-52.5
 74
               0
  0
LTYPE
  5
2E
100
AcDbSymbolTableRecord
100
AcDbLinetypeTableRecord
  2
DIVIDE
 70
               0
  3
CADPAC FUSION LINETYPE
 72
              65
 73
               6
 40
210.0
 49
84.0
 74
               0
 49
-42.0
 74
               0
 49
0.0
 74
               0
 49
-42.0
 74
               0
 49
0.0
 74
               0
 49
-42.0
 74
               0
  0
LTYPE
  5
2F
100
AcDbSymbolTableRecord
100
AcDbLinetypeTableRecord
  2
DIVIDE2
 70
               0
  3
CADPAC FUSION LINETYPE
 72
              65
 73
               6
 40
157.5
 49
63.0
 74
               0
 49
-31.5
 74
               0
 49
0.0
 74
               0
 49
-31.5
 74
               0
 49
0.0
 74
               0
 49
-31.5
 74
               0
  0
LTYPE
  5
30
100
AcDbSymbolTableRecord
100
AcDbLinetypeTableRecord
  2
BORDERX2
 70
               0
  3
CADPAC FUSION LINETYPE
 72
              65
 73
               6
 40
367.5
 49
105.0
 74
               0
 49
-52.5
 74
               0
 49
105.0
 74
               0
 49
-52.5
 74
               0
 49
0.0
 74
               0
 49
-52.5
 74
               0
  0
LTYPE
  5
31
100
AcDbSymbolTableRecord
100
AcDbLinetypeTableRecord
  2
BORDER
 70
               0
  3
CADPAC FUSION LINETYPE
 72
              65
 73
               6
 40
294.0
 49
84.0
 74
               0
 49
-42.0
 74
               0
 49
84.0
 74
               0
 49
-42.0
 74
               0
 49
0.0
 74
               0
 49
-42.0
 74
               0
  0
LTYPE
  5
32
100
AcDbSymbolTableRecord
100
AcDbLinetypeTableRecord
  2
BORDER2
 70
               0
  3
CADPAC FUSION LINETYPE
 72
              65
 73
               6
 40
220.5
 49
63.0
 74
               0
 49
-31.5
 74
               0
 49
63.0
 74
               0
 49
-31.5
 74
               0
 49
0.0
 74
               0
 49
-31.5
 74
               0
  0
LTYPE
  5
33
100
AcDbSymbolTableRecord
100
AcDbLinetypeTableRecord
  2
PHANTOMX2
 70
               0
  3
CADPAC FUSION LINETYPE
 72
              65
 73
               6
 40
315.0
 49
105.0
 74
               0
 49
-42.0
 74
               0
 49
42.0
 74
               0
 49
-42.0
 74
               0
 49
42.0
 74
               0
 49
-42.0
 74
               0
  0
LTYPE
  5
34
100
AcDbSymbolTableRecord
100
AcDbLinetypeTableRecord
  2
PHANTOM
 70
               0
  3
CADPAC FUSION LINETYPE
 72
              65
 73
               6
 40
260.39999999999998
 49
84.0
 74
               0
 49
-42.0
 74
               0
 49
25.199999999999999
 74
               0
 49
-42.0
 74
               0
 49
25.199999999999999
 74
               0
 49
-42.0
 74
               0
  0
LTYPE
  5
35
100
AcDbSymbolTableRecord
100
AcDbLinetypeTableRecord
  2
PHANTOM2
 70
               0
  3
CADPAC FUSION LINETYPE
 72
              65
 73
               6
 40
222.60000000000002
 49
63.0
 74
               0
 49
-42.0
 74
               0
 49
16.800000000000001
 74
               0
 49
-42.0
 74
               0
 49
16.800000000000001
 74
               0
 49
-42.0
 74
               0
  0
ENDTAB
  0
TABLE
  2
LAYER
  5
2
100
AcDbSymbolTable
 70
             256
  0
LAYER
  5
14
100
AcDbSymbolTableRecord
100
AcDbLayerTableRecord
  2
0
 70
               0
 62
               7
  6
CONTINUOUS
  0
LAYER
  5
36
100
AcDbSymbolTableRecord
100
AcDbLayerTableRecord
  2
LAYER001
 70
               0
 62
               7
  6
CONTINUOUS
  0
LAYER
  5
37
100
AcDbSymbolTableRecord
100
AcDbLayerTableRecord
  2
LAYER002
 70
               0
 62
               7
  6
CONTINUOUS
  0
LAYER
  5
38
100
AcDbSymbolTableRecord
100
AcDbLayerTableRecord
  2
LAYER003
 70
               0
 62
               7
  6
CONTINUOUS
  0
LAYER
  5
39
100
AcDbSymbolTableRecord
100
AcDbLayerTableRecord
  2
LAYER004
 70
               0
 62
               7
  6
CONTINUOUS
  0
LAYER
  5
3A
100
AcDbSymbolTableRecord
100
AcDbLayerTableRecord
  2
LAYER005
 70
               0
 62
               7
  6
CONTINUOUS
  0
LAYER
  5
3B
100
AcDbSymbolTableRecord
100
AcDbLayerTableRecord
  2
LAYER006
 70
               0
 62
               7
  6
CONTINUOUS
  0
LAYER
  5
3C
100
AcDbSymbolTableRecord
100
AcDbLayerTableRecord
  2
LAYER007
 70
               0
 62
               7
  6
CONTINUOUS
  0
LAYER
  5
3D
100
AcDbSymbolTableRecord
100
AcDbLayerTableRecord
  2
LAYER008
 70
               0
 62
               7
  6
CONTINUOUS
  0
LAYER
  5
3E
100
AcDbSymbolTableRecord
100
AcDbLayerTableRecord
  2
LAYER009
 70
               0
 62
               7
  6
CONTINUOUS
  0
LAYER
  5
3F
100
AcDbSymbolTableRecord
100
AcDbLayerTableRecord
  2
LAYER010
 70
               0
 62
               7
  6
CONTINUOUS
  0
LAYER
  5
40
100
AcDbSymbolTableRecord
100
AcDbLayerTableRecord
  2
LAYER011
 70
               0
 62
               7
  6
CONTINUOUS
  0
LAYER
  5
41
100
AcDbSymbolTableRecord
100
AcDbLayerTableRecord
  2
LAYER012
 70
               0
 62
               7
  6
CONTINUOUS
  0
LAYER
  5
42
100
AcDbSymbolTableRecord
100
AcDbLayerTableRecord
  2
LAYER013
 70
               0
 62
               7
  6
CONTINUOUS
  0
LAYER
  5
43
100
AcDbSymbolTableRecord
100
AcDbLayerTableRecord
  2
LAYER014
 70
               0
 62
               7
  6
CONTINUOUS
  0
LAYER
  5
44
100
AcDbSymbolTableRecord
100
AcDbLayerTableRecord
  2
LAYER015
 70
               0
 62
               7
  6
CONTINUOUS
  0
LAYER
  5
45
100
AcDbSymbolTableRecord
100
AcDbLayerTableRecord
  2
LAYER016
 70
               0
 62
               7
  6
CONTINUOUS
  0
LAYER
  5
46
100
AcDbSymbolTableRecord
100
AcDbLayerTableRecord
  2
LAYER017
 70
               0
 62
               7
  6
CONTINUOUS
  0
LAYER
  5
47
100
AcDbSymbolTableRecord
100
AcDbLayerTableRecord
  2
LAYER018
 70
               0
 62
               7
  6
CONTINUOUS
  0
LAYER
  5
48
100
AcDbSymbolTableRecord
100
AcDbLayerTableRecord
  2
LAYER019
 70
               0
 62
               7
  6
CONTINUOUS
  0
LAYER
  5
49
100
AcDbSymbolTableRecord
100
AcDbLayerTableRecord
  2
LAYER020
 70
               0
 62
               7
  6
CONTINUOUS
  0
LAYER
  5
4A
100
AcDbSymbolTableRecord
100
AcDbLayerTableRecord
  2
LAYER021
 70
               0
 62
               7
  6
CONTINUOUS
  0
LAYER
  5
4B
100
AcDbSymbolTableRecord
100
AcDbLayerTableRecord
  2
LAYER022
 70
               0
 62
               7
  6
CONTINUOUS
  0
LAYER
  5
4C
100
AcDbSymbolTableRecord
100
AcDbLayerTableRecord
  2
LAYER023
 70
               0
 62
               7
  6
CONTINUOUS
  0
LAYER
  5
4D
100
AcDbSymbolTableRecord
100
AcDbLayerTableRecord
  2
LAYER024
 70
               0
 62
               7
  6
CONTINUOUS
  0
LAYER
  5
4E
100
AcDbSymbolTableRecord
100
AcDbLayerTableRecord
  2
LAYER025
 70
               0
 62
               7
  6
CONTINUOUS
  0
LAYER
  5
4F
100
AcDbSymbolTableRecord
100
AcDbLayerTableRecord
  2
LAYER026
 70
               0
 62
               7
  6
CONTINUOUS
  0
LAYER
  5
50
100
AcDbSymbolTableRecord
100
AcDbLayerTableRecord
  2
LAYER027
 70
               0
 62
               7
  6
CONTINUOUS
  0
LAYER
  5
51
100
AcDbSymbolTableRecord
100
AcDbLayerTableRecord
  2
LAYER028
 70
               0
 62
               7
  6
CONTINUOUS
  0
LAYER
  5
52
100
AcDbSymbolTableRecord
100
AcDbLayerTableRecord
  2
LAYER029
 70
               0
 62
               7
  6
CONTINUOUS
  0
LAYER
  5
53
100
AcDbSymbolTableRecord
100
AcDbLayerTableRecord
  2
LAYER030
 70
               0
 62
               7
  6
CONTINUOUS
  0
LAYER
  5
54
100
AcDbSymbolTableRecord
100
AcDbLayerTableRecord
  2
LAYER031
 70
               0
 62
               7
  6
CONTINUOUS
  0
LAYER
  5
55
100
AcDbSymbolTableRecord
100
AcDbLayerTableRecord
  2
LAYER032
 70
               0
 62
               7
  6
CONTINUOUS
  0
LAYER
  5
56
100
AcDbSymbolTableRecord
100
AcDbLayerTableRecord
  2
LAYER033
 70
               0
 62
               7
  6
CONTINUOUS
  0
LAYER
  5
57
100
AcDbSymbolTableRecord
100
AcDbLayerTableRecord
  2
LAYER034
 70
               0
 62
               7
  6
CONTINUOUS
  0
LAYER
  5
58
100
AcDbSymbolTableRecord
100
AcDbLayerTableRecord
  2
LAYER035
 70
               0
 62
               7
  6
CONTINUOUS
  0
LAYER
  5
59
100
AcDbSymbolTableRecord
100
AcDbLayerTableRecord
  2
LAYER036
 70
               0
 62
               7
  6
CONTINUOUS
  0
LAYER
  5
5A
100
AcDbSymbolTableRecord
100
AcDbLayerTableRecord
  2
LAYER037
 70
               0
 62
               7
  6
CONTINUOUS
  0
LAYER
  5
5B
100
AcDbSymbolTableRecord
100
AcDbLayerTableRecord
  2
LAYER038
 70
               0
 62
               7
  6
CONTINUOUS
  0
LAYER
  5
5C
100
AcDbSymbolTableRecord
100
AcDbLayerTableRecord
  2
LAYER039
 70
               0
 62
               7
  6
CONTINUOUS
  0
LAYER
  5
5D
100
AcDbSymbolTableRecord
100
AcDbLayerTableRecord
  2
LAYER040
 70
               0
 62
               7
  6
CONTINUOUS
  0
LAYER
  5
5E
100
AcDbSymbolTableRecord
100
AcDbLayerTableRecord
  2
LAYER041
 70
               0
 62
               7
  6
CONTINUOUS
  0
LAYER
  5
5F
100
AcDbSymbolTableRecord
100
AcDbLayerTableRecord
  2
LAYER042
 70
               0
 62
               7
  6
CONTINUOUS
  0
LAYER
  5
60
100
AcDbSymbolTableRecord
100
AcDbLayerTableRecord
  2
LAYER043
 70
               0
 62
               7
  6
CONTINUOUS
  0
LAYER
  5
61
100
AcDbSymbolTableRecord
100
AcDbLayerTableRecord
  2
LAYER044
 70
               0
 62
               7
  6
CONTINUOUS
  0
LAYER
  5
62
100
AcDbSymbolTableRecord
100
AcDbLayerTableRecord
  2
LAYER045
 70
               0
 62
               7
  6
CONTINUOUS
  0
LAYER
  5
63
100
AcDbSymbolTableRecord
100
AcDbLayerTableRecord
  2
LAYER046
 70
               0
 62
               7
  6
CONTINUOUS
  0
LAYER
  5
64
100
AcDbSymbolTableRecord
100
AcDbLayerTableRecord
  2
LAYER047
 70
               0
 62
               7
  6
CONTINUOUS
  0
LAYER
  5
65
100
AcDbSymbolTableRecord
100
AcDbLayerTableRecord
  2
LAYER048
 70
               0
 62
               7
  6
CONTINUOUS
  0
LAYER
  5
66
100
AcDbSymbolTableRecord
100
AcDbLayerTableRecord
  2
LAYER049
 70
               0
 62
               7
  6
CONTINUOUS
  0
LAYER
  5
67
100
AcDbSymbolTableRecord
100
AcDbLayerTableRecord
  2
LAYER050
 70
               0
 62
               7
  6
CONTINUOUS
  0
LAYER
  5
68
100
AcDbSymbolTableRecord
100
AcDbLayerTableRecord
  2
LAYER051
 70
               0
 62
               7
  6
CONTINUOUS
  0
LAYER
  5
69
100
AcDbSymbolTableRecord
100
AcDbLayerTableRecord
  2
LAYER052
 70
               0
 62
               7
  6
CONTINUOUS
  0
LAYER
  5
6A
100
AcDbSymbolTableRecord
100
AcDbLayerTableRecord
  2
LAYER053
 70
               0
 62
               7
  6
CONTINUOUS
  0
LAYER
  5
6B
100
AcDbSymbolTableRecord
100
AcDbLayerTableRecord
  2
LAYER054
 70
               0
 62
               7
  6
CONTINUOUS
  0
LAYER
  5
6C
100
AcDbSymbolTableRecord
100
AcDbLayerTableRecord
  2
LAYER055
 70
               0
 62
               7
  6
CONTINUOUS
  0
LAYER
  5
6D
100
AcDbSymbolTableRecord
100
AcDbLayerTableRecord
  2
LAYER056
 70
               0
 62
               7
  6
CONTINUOUS
  0
LAYER
  5
6E
100
AcDbSymbolTableRecord
100
AcDbLayerTableRecord
  2
LAYER057
 70
               0
 62
               7
  6
CONTINUOUS
  0
LAYER
  5
6F
100
AcDbSymbolTableRecord
100
AcDbLayerTableRecord
  2
LAYER058
 70
               0
 62
               7
  6
CONTINUOUS
  0
LAYER
  5
70
100
AcDbSymbolTableRecord
100
AcDbLayerTableRecord
  2
LAYER059
 70
               0
 62
               7
  6
CONTINUOUS
  0
LAYER
  5
71
100
AcDbSymbolTableRecord
100
AcDbLayerTableRecord
  2
LAYER060
 70
               0
 62
               7
  6
CONTINUOUS
  0
LAYER
  5
72
100
AcDbSymbolTableRecord
100
AcDbLayerTableRecord
  2
LAYER061
 70
               0
 62
               7
  6
CONTINUOUS
  0
LAYER
  5
73
100
AcDbSymbolTableRecord
100
AcDbLayerTableRecord
  2
LAYER062
 70
               0
 62
               7
  6
CONTINUOUS
  0
LAYER
  5
74
100
AcDbSymbolTableRecord
100
AcDbLayerTableRecord
  2
LAYER063
 70
               0
 62
               7
  6
CONTINUOUS
  0
LAYER
  5
75
100
AcDbSymbolTableRecord
100
AcDbLayerTableRecord
  2
LAYER064
 70
               0
 62
               7
  6
CONTINUOUS
  0
LAYER
  5
76
100
AcDbSymbolTableRecord
100
AcDbLayerTableRecord
  2
LAYER065
 70
               0
 62
               7
  6
CONTINUOUS
  0
LAYER
  5
77
100
AcDbSymbolTableRecord
100
AcDbLayerTableRecord
  2
LAYER066
 70
               0
 62
               7
  6
CONTINUOUS
  0
LAYER
  5
78
100
AcDbSymbolTableRecord
100
AcDbLayerTableRecord
  2
LAYER067
 70
               0
 62
               7
  6
CONTINUOUS
  0
LAYER
  5
79
100
AcDbSymbolTableRecord
100
AcDbLayerTableRecord
  2
LAYER068
 70
               0
 62
               7
  6
CONTINUOUS
  0
LAYER
  5
7A
100
AcDbSymbolTableRecord
100
AcDbLayerTableRecord
  2
LAYER069
 70
               0
 62
               7
  6
CONTINUOUS
  0
LAYER
  5
7B
100
AcDbSymbolTableRecord
100
AcDbLayerTableRecord
  2
LAYER070
 70
               0
 62
               7
  6
CONTINUOUS
  0
LAYER
  5
7C
100
AcDbSymbolTableRecord
100
AcDbLayerTableRecord
  2
LAYER071
 70
               0
 62
               7
  6
CONTINUOUS
  0
LAYER
  5
7D
100
AcDbSymbolTableRecord
100
AcDbLayerTableRecord
  2
LAYER072
 70
               0
 62
               7
  6
CONTINUOUS
  0
LAYER
  5
7E
100
AcDbSymbolTableRecord
100
AcDbLayerTableRecord
  2
LAYER073
 70
               0
 62
               7
  6
CONTINUOUS
  0
LAYER
  5
7F
100
AcDbSymbolTableRecord
100
AcDbLayerTableRecord
  2
LAYER074
 70
               0
 62
               7
  6
CONTINUOUS
  0
LAYER
  5
80
100
AcDbSymbolTableRecord
100
AcDbLayerTableRecord
  2
LAYER075
 70
               0
 62
               7
  6
CONTINUOUS
  0
LAYER
  5
81
100
AcDbSymbolTableRecord
100
AcDbLayerTableRecord
  2
LAYER076
 70
               0
 62
               7
  6
CONTINUOUS
  0
LAYER
  5
82
100
AcDbSymbolTableRecord
100
AcDbLayerTableRecord
  2
LAYER077
 70
               0
 62
               7
  6
CONTINUOUS
  0
LAYER
  5
83
100
AcDbSymbolTableRecord
100
AcDbLayerTableRecord
  2
LAYER078
 70
               0
 62
               7
  6
CONTINUOUS
  0
LAYER
  5
84
100
AcDbSymbolTableRecord
100
AcDbLayerTableRecord
  2
LAYER079
 70
               0
 62
               7
  6
CONTINUOUS
  0
LAYER
  5
85
100
AcDbSymbolTableRecord
100
AcDbLayerTableRecord
  2
LAYER080
 70
               0
 62
               7
  6
CONTINUOUS
  0
LAYER
  5
86
100
AcDbSymbolTableRecord
100
AcDbLayerTableRecord
  2
LAYER081
 70
               0
 62
               7
  6
CONTINUOUS
  0
LAYER
  5
87
100
AcDbSymbolTableRecord
100
AcDbLayerTableRecord
  2
LAYER082
 70
               0
 62
               7
  6
CONTINUOUS
  0
LAYER
  5
88
100
AcDbSymbolTableRecord
100
AcDbLayerTableRecord
  2
LAYER083
 70
               0
 62
               7
  6
CONTINUOUS
  0
LAYER
  5
89
100
AcDbSymbolTableRecord
100
AcDbLayerTableRecord
  2
LAYER084
 70
               0
 62
               7
  6
CONTINUOUS
  0
LAYER
  5
8A
100
AcDbSymbolTableRecord
100
AcDbLayerTableRecord
  2
LAYER085
 70
               0
 62
               7
  6
CONTINUOUS
  0
LAYER
  5
8B
100
AcDbSymbolTableRecord
100
AcDbLayerTableRecord
  2
LAYER086
 70
               0
 62
               7
  6
CONTINUOUS
  0
LAYER
  5
8C
100
AcDbSymbolTableRecord
100
AcDbLayerTableRecord
  2
LAYER087
 70
               0
 62
               7
  6
CONTINUOUS
  0
LAYER
  5
8D
100
AcDbSymbolTableRecord
100
AcDbLayerTableRecord
  2
LAYER088
 70
               0
 62
               7
  6
CONTINUOUS
  0
LAYER
  5
8E
100
AcDbSymbolTableRecord
100
AcDbLayerTableRecord
  2
LAYER089
 70
               0
 62
               7
  6
CONTINUOUS
  0
LAYER
  5
8F
100
AcDbSymbolTableRecord
100
AcDbLayerTableRecord
  2
LAYER090
 70
               0
 62
               7
  6
CONTINUOUS
  0
LAYER
  5
90
100
AcDbSymbolTableRecord
100
AcDbLayerTableRecord
  2
LAYER091
 70
               0
 62
               7
  6
CONTINUOUS
  0
LAYER
  5
91
100
AcDbSymbolTableRecord
100
AcDbLayerTableRecord
  2
LAYER092
 70
               0
 62
               7
  6
CONTINUOUS
  0
LAYER
  5
92
100
AcDbSymbolTableRecord
100
AcDbLayerTableRecord
  2
LAYER093
 70
               0
 62
               7
  6
CONTINUOUS
  0
LAYER
  5
93
100
AcDbSymbolTableRecord
100
AcDbLayerTableRecord
  2
LAYER094
 70
               0
 62
               7
  6
CONTINUOUS
  0
LAYER
  5
94
100
AcDbSymbolTableRecord
100
AcDbLayerTableRecord
  2
LAYER095
 70
               0
 62
               7
  6
CONTINUOUS
  0
LAYER
  5
95
100
AcDbSymbolTableRecord
100
AcDbLayerTableRecord
  2
LAYER096
 70
               0
 62
               7
  6
CONTINUOUS
  0
LAYER
  5
96
100
AcDbSymbolTableRecord
100
AcDbLayerTableRecord
  2
LAYER097
 70
               0
 62
               7
  6
CONTINUOUS
  0
LAYER
  5
97
100
AcDbSymbolTableRecord
100
AcDbLayerTableRecord
  2
LAYER098
 70
               0
 62
               7
  6
CONTINUOUS
  0
LAYER
  5
98
100
AcDbSymbolTableRecord
100
AcDbLayerTableRecord
  2
LAYER099
 70
               0
 62
               7
  6
CONTINUOUS
  0
LAYER
  5
99
100
AcDbSymbolTableRecord
100
AcDbLayerTableRecord
  2
LAYER100
 70
               0
 62
               7
  6
CONTINUOUS
  0
LAYER
  5
9A
100
AcDbSymbolTableRecord
100
AcDbLayerTableRecord
  2
LAYER101
 70
               0
 62
               7
  6
CONTINUOUS
  0
LAYER
  5
9B
100
AcDbSymbolTableRecord
100
AcDbLayerTableRecord
  2
LAYER102
 70
               0
 62
               7
  6
CONTINUOUS
  0
LAYER
  5
9C
100
AcDbSymbolTableRecord
100
AcDbLayerTableRecord
  2
LAYER103
 70
               0
 62
               7
  6
CONTINUOUS
  0
LAYER
  5
9D
100
AcDbSymbolTableRecord
100
AcDbLayerTableRecord
  2
LAYER104
 70
               0
 62
               7
  6
CONTINUOUS
  0
LAYER
  5
9E
100
AcDbSymbolTableRecord
100
AcDbLayerTableRecord
  2
LAYER105
 70
               0
 62
               7
  6
CONTINUOUS
  0
LAYER
  5
9F
100
AcDbSymbolTableRecord
100
AcDbLayerTableRecord
  2
LAYER106
 70
               0
 62
               7
  6
CONTINUOUS
  0
LAYER
  5
A0
100
AcDbSymbolTableRecord
100
AcDbLayerTableRecord
  2
LAYER107
 70
               0
 62
               7
  6
CONTINUOUS
  0
LAYER
  5
A1
100
AcDbSymbolTableRecord
100
AcDbLayerTableRecord
  2
LAYER108
 70
               0
 62
               7
  6
CONTINUOUS
  0
LAYER
  5
A2
100
AcDbSymbolTableRecord
100
AcDbLayerTableRecord
  2
LAYER109
 70
               0
 62
               7
  6
CONTINUOUS
  0
LAYER
  5
A3
100
AcDbSymbolTableRecord
100
AcDbLayerTableRecord
  2
LAYER110
 70
               0
 62
               7
  6
CONTINUOUS
  0
LAYER
  5
A4
100
AcDbSymbolTableRecord
100
AcDbLayerTableRecord
  2
LAYER111
 70
               0
 62
               7
  6
CONTINUOUS
  0
LAYER
  5
A5
100
AcDbSymbolTableRecord
100
AcDbLayerTableRecord
  2
LAYER112
 70
               0
 62
               7
  6
CONTINUOUS
  0
LAYER
  5
A6
100
AcDbSymbolTableRecord
100
AcDbLayerTableRecord
  2
LAYER113
 70
               0
 62
               7
  6
CONTINUOUS
  0
LAYER
  5
A7
100
AcDbSymbolTableRecord
100
AcDbLayerTableRecord
  2
LAYER114
 70
               0
 62
               7
  6
CONTINUOUS
  0
LAYER
  5
A8
100
AcDbSymbolTableRecord
100
AcDbLayerTableRecord
  2
LAYER115
 70
               0
 62
               7
  6
CONTINUOUS
  0
LAYER
  5
A9
100
AcDbSymbolTableRecord
100
AcDbLayerTableRecord
  2
LAYER116
 70
               0
 62
               7
  6
CONTINUOUS
  0
LAYER
  5
AA
100
AcDbSymbolTableRecord
100
AcDbLayerTableRecord
  2
LAYER117
 70
               0
 62
               7
  6
CONTINUOUS
  0
LAYER
  5
AB
100
AcDbSymbolTableRecord
100
AcDbLayerTableRecord
  2
LAYER118
 70
               0
 62
               7
  6
CONTINUOUS
  0
LAYER
  5
AC
100
AcDbSymbolTableRecord
100
AcDbLayerTableRecord
  2
LAYER119
 70
               0
 62
               7
  6
CONTINUOUS
  0
LAYER
  5
AD
100
AcDbSymbolTableRecord
100
AcDbLayerTableRecord
  2
LAYER120
 70
               0
 62
               7
  6
CONTINUOUS
  0
LAYER
  5
AE
100
AcDbSymbolTableRecord
100
AcDbLayerTableRecord
  2
LAYER121
 70
               0
 62
               7
  6
CONTINUOUS
  0
LAYER
  5
AF
100
AcDbSymbolTableRecord
100
AcDbLayerTableRecord
  2
LAYER122
 70
               0
 62
               7
  6
CONTINUOUS
  0
LAYER
  5
B0
100
AcDbSymbolTableRecord
100
AcDbLayerTableRecord
  2
LAYER123
 70
               0
 62
               7
  6
CONTINUOUS
  0
LAYER
  5
B1
100
AcDbSymbolTableRecord
100
AcDbLayerTableRecord
  2
LAYER124
 70
               0
 62
               7
  6
CONTINUOUS
  0
LAYER
  5
B2
100
AcDbSymbolTableRecord
100
AcDbLayerTableRecord
  2
LAYER125
 70
               0
 62
               7
  6
CONTINUOUS
  0
LAYER
  5
B3
100
AcDbSymbolTableRecord
100
AcDbLayerTableRecord
  2
LAYER126
 70
               0
 62
               7
  6
CONTINUOUS
  0
LAYER
  5
B4
100
AcDbSymbolTableRecord
100
AcDbLayerTableRecord
  2
LAYER127
 70
               0
 62
               7
  6
CONTINUOUS
  0
LAYER
  5
B5
100
AcDbSymbolTableRecord
100
AcDbLayerTableRecord
  2
LAYER128
 70
               0
 62
               7
  6
CONTINUOUS
  0
LAYER
  5
B6
100
AcDbSymbolTableRecord
100
AcDbLayerTableRecord
  2
LAYER129
 70
               0
 62
               7
  6
CONTINUOUS
  0
LAYER
  5
B7
100
AcDbSymbolTableRecord
100
AcDbLayerTableRecord
  2
LAYER130
 70
               0
 62
               7
  6
CONTINUOUS
  0
LAYER
  5
B8
100
AcDbSymbolTableRecord
100
AcDbLayerTableRecord
  2
LAYER131
 70
               0
 62
               7
  6
CONTINUOUS
  0
LAYER
  5
B9
100
AcDbSymbolTableRecord
100
AcDbLayerTableRecord
  2
LAYER132
 70
               0
 62
               7
  6
CONTINUOUS
  0
LAYER
  5
BA
100
AcDbSymbolTableRecord
100
AcDbLayerTableRecord
  2
LAYER133
 70
               0
 62
               7
  6
CONTINUOUS
  0
LAYER
  5
BB
100
AcDbSymbolTableRecord
100
AcDbLayerTableRecord
  2
LAYER134
 70
               0
 62
               7
  6
CONTINUOUS
  0
LAYER
  5
BC
100
AcDbSymbolTableRecord
100
AcDbLayerTableRecord
  2
LAYER135
 70
               0
 62
               7
  6
CONTINUOUS
  0
LAYER
  5
BD
100
AcDbSymbolTableRecord
100
AcDbLayerTableRecord
  2
LAYER136
 70
               0
 62
               7
  6
CONTINUOUS
  0
LAYER
  5
BE
100
AcDbSymbolTableRecord
100
AcDbLayerTableRecord
  2
LAYER137
 70
               0
 62
               7
  6
CONTINUOUS
  0
LAYER
  5
BF
100
AcDbSymbolTableRecord
100
AcDbLayerTableRecord
  2
LAYER138
 70
               0
 62
               7
  6
CONTINUOUS
  0
LAYER
  5
C0
100
AcDbSymbolTableRecord
100
AcDbLayerTableRecord
  2
LAYER139
 70
               0
 62
               7
  6
CONTINUOUS
  0
LAYER
  5
C1
100
AcDbSymbolTableRecord
100
AcDbLayerTableRecord
  2
LAYER140
 70
               0
 62
               7
  6
CONTINUOUS
  0
LAYER
  5
C2
100
AcDbSymbolTableRecord
100
AcDbLayerTableRecord
  2
LAYER141
 70
               0
 62
               7
  6
CONTINUOUS
  0
LAYER
  5
C3
100
AcDbSymbolTableRecord
100
AcDbLayerTableRecord
  2
LAYER142
 70
               0
 62
               7
  6
CONTINUOUS
  0
LAYER
  5
C4
100
AcDbSymbolTableRecord
100
AcDbLayerTableRecord
  2
LAYER143
 70
               0
 62
               7
  6
CONTINUOUS
  0
LAYER
  5
C5
100
AcDbSymbolTableRecord
100
AcDbLayerTableRecord
  2
LAYER144
 70
               0
 62
               7
  6
CONTINUOUS
  0
LAYER
  5
C6
100
AcDbSymbolTableRecord
100
AcDbLayerTableRecord
  2
LAYER145
 70
               0
 62
               7
  6
CONTINUOUS
  0
LAYER
  5
C7
100
AcDbSymbolTableRecord
100
AcDbLayerTableRecord
  2
LAYER146
 70
               0
 62
               7
  6
CONTINUOUS
  0
LAYER
  5
C8
100
AcDbSymbolTableRecord
100
AcDbLayerTableRecord
  2
LAYER147
 70
               0
 62
               7
  6
CONTINUOUS
  0
LAYER
  5
C9
100
AcDbSymbolTableRecord
100
AcDbLayerTableRecord
  2
LAYER148
 70
               0
 62
               7
  6
CONTINUOUS
  0
LAYER
  5
CA
100
AcDbSymbolTableRecord
100
AcDbLayerTableRecord
  2
LAYER149
 70
               0
 62
               7
  6
CONTINUOUS
  0
LAYER
  5
CB
100
AcDbSymbolTableRecord
100
AcDbLayerTableRecord
  2
LAYER150
 70
               0
 62
               7
  6
CONTINUOUS
  0
LAYER
  5
CC
100
AcDbSymbolTableRecord
100
AcDbLayerTableRecord
  2
LAYER151
 70
               0
 62
               7
  6
CONTINUOUS
  0
LAYER
  5
CD
100
AcDbSymbolTableRecord
100
AcDbLayerTableRecord
  2
LAYER152
 70
               0
 62
               7
  6
CONTINUOUS
  0
LAYER
  5
CE
100
AcDbSymbolTableRecord
100
AcDbLayerTableRecord
  2
LAYER153
 70
               0
 62
               7
  6
CONTINUOUS
  0
LAYER
  5
CF
100
AcDbSymbolTableRecord
100
AcDbLayerTableRecord
  2
LAYER154
 70
               0
 62
               7
  6
CONTINUOUS
  0
LAYER
  5
D0
100
AcDbSymbolTableRecord
100
AcDbLayerTableRecord
  2
LAYER155
 70
               0
 62
               7
  6
CONTINUOUS
  0
LAYER
  5
D1
100
AcDbSymbolTableRecord
100
AcDbLayerTableRecord
  2
LAYER156
 70
               0
 62
               7
  6
CONTINUOUS
  0
LAYER
  5
D2
100
AcDbSymbolTableRecord
100
AcDbLayerTableRecord
  2
LAYER157
 70
               0
 62
               7
  6
CONTINUOUS
  0
LAYER
  5
D3
100
AcDbSymbolTableRecord
100
AcDbLayerTableRecord
  2
LAYER158
 70
               0
 62
               7
  6
CONTINUOUS
  0
LAYER
  5
D4
100
AcDbSymbolTableRecord
100
AcDbLayerTableRecord
  2
LAYER159
 70
               0
 62
               7
  6
CONTINUOUS
  0
LAYER
  5
D5
100
AcDbSymbolTableRecord
100
AcDbLayerTableRecord
  2
LAYER160
 70
               0
 62
               7
  6
CONTINUOUS
  0
LAYER
  5
D6
100
AcDbSymbolTableRecord
100
AcDbLayerTableRecord
  2
LAYER161
 70
               0
 62
               7
  6
CONTINUOUS
  0
LAYER
  5
D7
100
AcDbSymbolTableRecord
100
AcDbLayerTableRecord
  2
LAYER162
 70
               0
 62
               7
  6
CONTINUOUS
  0
LAYER
  5
D8
100
AcDbSymbolTableRecord
100
AcDbLayerTableRecord
  2
LAYER163
 70
               0
 62
               7
  6
CONTINUOUS
  0
LAYER
  5
D9
100
AcDbSymbolTableRecord
100
AcDbLayerTableRecord
  2
LAYER164
 70
               0
 62
               7
  6
CONTINUOUS
  0
LAYER
  5
DA
100
AcDbSymbolTableRecord
100
AcDbLayerTableRecord
  2
LAYER165
 70
               0
 62
               7
  6
CONTINUOUS
  0
LAYER
  5
DB
100
AcDbSymbolTableRecord
100
AcDbLayerTableRecord
  2
LAYER166
 70
               0
 62
               7
  6
CONTINUOUS
  0
LAYER
  5
DC
100
AcDbSymbolTableRecord
100
AcDbLayerTableRecord
  2
LAYER167
 70
               0
 62
               7
  6
CONTINUOUS
  0
LAYER
  5
DD
100
AcDbSymbolTableRecord
100
AcDbLayerTableRecord
  2
LAYER168
 70
               0
 62
               7
  6
CONTINUOUS
  0
LAYER
  5
DE
100
AcDbSymbolTableRecord
100
AcDbLayerTableRecord
  2
LAYER169
 70
               0
 62
               7
  6
CONTINUOUS
  0
LAYER
  5
DF
100
AcDbSymbolTableRecord
100
AcDbLayerTableRecord
  2
LAYER170
 70
               0
 62
               7
  6
CONTINUOUS
  0
LAYER
  5
E0
100
AcDbSymbolTableRecord
100
AcDbLayerTableRecord
  2
LAYER171
 70
               0
 62
               7
  6
CONTINUOUS
  0
LAYER
  5
E1
100
AcDbSymbolTableRecord
100
AcDbLayerTableRecord
  2
LAYER172
 70
               0
 62
               7
  6
CONTINUOUS
  0
LAYER
  5
E2
100
AcDbSymbolTableRecord
100
AcDbLayerTableRecord
  2
LAYER173
 70
               0
 62
               7
  6
CONTINUOUS
  0
LAYER
  5
E3
100
AcDbSymbolTableRecord
100
AcDbLayerTableRecord
  2
LAYER174
 70
               0
 62
               7
  6
CONTINUOUS
  0
LAYER
  5
E4
100
AcDbSymbolTableRecord
100
AcDbLayerTableRecord
  2
LAYER175
 70
               0
 62
               7
  6
CONTINUOUS
  0
LAYER
  5
E5
100
AcDbSymbolTableRecord
100
AcDbLayerTableRecord
  2
LAYER176
 70
               0
 62
               7
  6
CONTINUOUS
  0
LAYER
  5
E6
100
AcDbSymbolTableRecord
100
AcDbLayerTableRecord
  2
LAYER177
 70
               0
 62
               7
  6
CONTINUOUS
  0
LAYER
  5
E7
100
AcDbSymbolTableRecord
100
AcDbLayerTableRecord
  2
LAYER178
 70
               0
 62
               7
  6
CONTINUOUS
  0
LAYER
  5
E8
100
AcDbSymbolTableRecord
100
AcDbLayerTableRecord
  2
LAYER179
 70
               0
 62
               7
  6
CONTINUOUS
  0
LAYER
  5
E9
100
AcDbSymbolTableRecord
100
AcDbLayerTableRecord
  2
LAYER180
 70
               0
 62
               7
  6
CONTINUOUS
  0
LAYER
  5
EA
100
AcDbSymbolTableRecord
100
AcDbLayerTableRecord
  2
LAYER181
 70
               0
 62
               7
  6
CONTINUOUS
  0
LAYER
  5
EB
100
AcDbSymbolTableRecord
100
AcDbLayerTableRecord
  2
LAYER182
 70
               0
 62
               7
  6
CONTINUOUS
  0
LAYER
  5
EC
100
AcDbSymbolTableRecord
100
AcDbLayerTableRecord
  2
LAYER183
 70
               0
 62
               7
  6
CONTINUOUS
  0
LAYER
  5
ED
100
AcDbSymbolTableRecord
100
AcDbLayerTableRecord
  2
LAYER184
 70
               0
 62
               7
  6
CONTINUOUS
  0
LAYER
  5
EE
100
AcDbSymbolTableRecord
100
AcDbLayerTableRecord
  2
LAYER185
 70
               0
 62
               7
  6
CONTINUOUS
  0
LAYER
  5
EF
100
AcDbSymbolTableRecord
100
AcDbLayerTableRecord
  2
LAYER186
 70
               0
 62
               7
  6
CONTINUOUS
  0
LAYER
  5
F0
100
AcDbSymbolTableRecord
100
AcDbLayerTableRecord
  2
LAYER187
 70
               0
 62
               7
  6
CONTINUOUS
  0
LAYER
  5
F1
100
AcDbSymbolTableRecord
100
AcDbLayerTableRecord
  2
LAYER188
 70
               0
 62
               7
  6
CONTINUOUS
  0
LAYER
  5
F2
100
AcDbSymbolTableRecord
100
AcDbLayerTableRecord
  2
LAYER189
 70
               0
 62
               7
  6
CONTINUOUS
  0
LAYER
  5
F3
100
AcDbSymbolTableRecord
100
AcDbLayerTableRecord
  2
LAYER190
 70
               0
 62
               7
  6
CONTINUOUS
  0
LAYER
  5
F4
100
AcDbSymbolTableRecord
100
AcDbLayerTableRecord
  2
LAYER191
 70
               0
 62
               7
  6
CONTINUOUS
  0
LAYER
  5
F5
100
AcDbSymbolTableRecord
100
AcDbLayerTableRecord
  2
LAYER192
 70
               0
 62
               7
  6
CONTINUOUS
  0
LAYER
  5
F6
100
AcDbSymbolTableRecord
100
AcDbLayerTableRecord
  2
LAYER193
 70
               0
 62
               7
  6
CONTINUOUS
  0
LAYER
  5
F7
100
AcDbSymbolTableRecord
100
AcDbLayerTableRecord
  2
LAYER194
 70
               0
 62
               7
  6
CONTINUOUS
  0
LAYER
  5
F8
100
AcDbSymbolTableRecord
100
AcDbLayerTableRecord
  2
LAYER195
 70
               0
 62
               7
  6
CONTINUOUS
  0
LAYER
  5
F9
100
AcDbSymbolTableRecord
100
AcDbLayerTableRecord
  2
LAYER196
 70
               0
 62
               7
  6
CONTINUOUS
  0
LAYER
  5
FA
100
AcDbSymbolTableRecord
100
AcDbLayerTableRecord
  2
LAYER197
 70
               0
 62
               7
  6
CONTINUOUS
  0
LAYER
  5
FB
100
AcDbSymbolTableRecord
100
AcDbLayerTableRecord
  2
LAYER198
 70
               0
 62
               7
  6
CONTINUOUS
  0
LAYER
  5
FC
100
AcDbSymbolTableRecord
100
AcDbLayerTableRecord
  2
LAYER199
 70
               0
 62
               7
  6
CONTINUOUS
  0
LAYER
  5
FD
100
AcDbSymbolTableRecord
100
AcDbLayerTableRecord
  2
LAYER200
 70
               0
 62
               7
  6
CONTINUOUS
  0
LAYER
  5
FE
100
AcDbSymbolTableRecord
100
AcDbLayerTableRecord
  2
LAYER201
 70
               0
 62
               7
  6
CONTINUOUS
  0
LAYER
  5
FF
100
AcDbSymbolTableRecord
100
AcDbLayerTableRecord
  2
LAYER202
 70
               0
 62
               7
  6
CONTINUOUS
  0
LAYER
  5
100
100
AcDbSymbolTableRecord
100
AcDbLayerTableRecord
  2
LAYER203
 70
               0
 62
               7
  6
CONTINUOUS
  0
LAYER
  5
101
100
AcDbSymbolTableRecord
100
AcDbLayerTableRecord
  2
LAYER204
 70
               0
 62
               7
  6
CONTINUOUS
  0
LAYER
  5
102
100
AcDbSymbolTableRecord
100
AcDbLayerTableRecord
  2
LAYER205
 70
               0
 62
               7
  6
CONTINUOUS
  0
LAYER
  5
103
100
AcDbSymbolTableRecord
100
AcDbLayerTableRecord
  2
LAYER206
 70
               0
 62
               7
  6
CONTINUOUS
  0
LAYER
  5
104
100
AcDbSymbolTableRecord
100
AcDbLayerTableRecord
  2
LAYER207
 70
               0
 62
               7
  6
CONTINUOUS
  0
LAYER
  5
105
100
AcDbSymbolTableRecord
100
AcDbLayerTableRecord
  2
LAYER208
 70
               0
 62
               7
  6
CONTINUOUS
  0
LAYER
  5
106
100
AcDbSymbolTableRecord
100
AcDbLayerTableRecord
  2
LAYER209
 70
               0
 62
               7
  6
CONTINUOUS
  0
LAYER
  5
107
100
AcDbSymbolTableRecord
100
AcDbLayerTableRecord
  2
LAYER210
 70
               0
 62
               7
  6
CONTINUOUS
  0
LAYER
  5
108
100
AcDbSymbolTableRecord
100
AcDbLayerTableRecord
  2
LAYER211
 70
               0
 62
               7
  6
CONTINUOUS
  0
LAYER
  5
109
100
AcDbSymbolTableRecord
100
AcDbLayerTableRecord
  2
LAYER212
 70
               0
 62
               7
  6
CONTINUOUS
  0
LAYER
  5
10A
100
AcDbSymbolTableRecord
100
AcDbLayerTableRecord
  2
LAYER213
 70
               0
 62
               7
  6
CONTINUOUS
  0
LAYER
  5
10B
100
AcDbSymbolTableRecord
100
AcDbLayerTableRecord
  2
LAYER214
 70
               0
 62
               7
  6
CONTINUOUS
  0
LAYER
  5
10C
100
AcDbSymbolTableRecord
100
AcDbLayerTableRecord
  2
LAYER215
 70
               0
 62
               7
  6
CONTINUOUS
  0
LAYER
  5
10D
100
AcDbSymbolTableRecord
100
AcDbLayerTableRecord
  2
LAYER216
 70
               0
 62
               7
  6
CONTINUOUS
  0
LAYER
  5
10E
100
AcDbSymbolTableRecord
100
AcDbLayerTableRecord
  2
LAYER217
 70
               0
 62
               7
  6
CONTINUOUS
  0
LAYER
  5
10F
100
AcDbSymbolTableRecord
100
AcDbLayerTableRecord
  2
LAYER218
 70
               0
 62
               7
  6
CONTINUOUS
  0
LAYER
  5
110
100
AcDbSymbolTableRecord
100
AcDbLayerTableRecord
  2
LAYER219
 70
               0
 62
               7
  6
CONTINUOUS
  0
LAYER
  5
111
100
AcDbSymbolTableRecord
100
AcDbLayerTableRecord
  2
LAYER220
 70
               0
 62
               7
  6
CONTINUOUS
  0
LAYER
  5
112
100
AcDbSymbolTableRecord
100
AcDbLayerTableRecord
  2
LAYER221
 70
               0
 62
               7
  6
CONTINUOUS
  0
LAYER
  5
113
100
AcDbSymbolTableRecord
100
AcDbLayerTableRecord
  2
LAYER222
 70
               0
 62
               7
  6
CONTINUOUS
  0
LAYER
  5
114
100
AcDbSymbolTableRecord
100
AcDbLayerTableRecord
  2
LAYER223
 70
               0
 62
               7
  6
CONTINUOUS
  0
LAYER
  5
115
100
AcDbSymbolTableRecord
100
AcDbLayerTableRecord
  2
LAYER224
 70
               0
 62
               7
  6
CONTINUOUS
  0
LAYER
  5
116
100
AcDbSymbolTableRecord
100
AcDbLayerTableRecord
  2
LAYER225
 70
               0
 62
               7
  6
CONTINUOUS
  0
LAYER
  5
117
100
AcDbSymbolTableRecord
100
AcDbLayerTableRecord
  2
LAYER226
 70
               0
 62
               7
  6
CONTINUOUS
  0
LAYER
  5
118
100
AcDbSymbolTableRecord
100
AcDbLayerTableRecord
  2
LAYER227
 70
               0
 62
               7
  6
CONTINUOUS
  0
LAYER
  5
119
100
AcDbSymbolTableRecord
100
AcDbLayerTableRecord
  2
LAYER228
 70
               0
 62
               7
  6
CONTINUOUS
  0
LAYER
  5
11A
100
AcDbSymbolTableRecord
100
AcDbLayerTableRecord
  2
LAYER229
 70
               0
 62
               7
  6
CONTINUOUS
  0
LAYER
  5
11B
100
AcDbSymbolTableRecord
100
AcDbLayerTableRecord
  2
LAYER230
 70
               0
 62
               7
  6
CONTINUOUS
  0
LAYER
  5
11C
100
AcDbSymbolTableRecord
100
AcDbLayerTableRecord
  2
LAYER231
 70
               0
 62
               7
  6
CONTINUOUS
  0
LAYER
  5
11D
100
AcDbSymbolTableRecord
100
AcDbLayerTableRecord
  2
LAYER232
 70
               0
 62
               7
  6
CONTINUOUS
  0
LAYER
  5
11E
100
AcDbSymbolTableRecord
100
AcDbLayerTableRecord
  2
LAYER233
 70
               0
 62
               7
  6
CONTINUOUS
  0
LAYER
  5
11F
100
AcDbSymbolTableRecord
100
AcDbLayerTableRecord
  2
LAYER234
 70
               0
 62
               7
  6
CONTINUOUS
  0
LAYER
  5
120
100
AcDbSymbolTableRecord
100
AcDbLayerTableRecord
  2
LAYER235
 70
               0
 62
               7
  6
CONTINUOUS
  0
LAYER
  5
121
100
AcDbSymbolTableRecord
100
AcDbLayerTableRecord
  2
LAYER236
 70
               0
 62
               7
  6
CONTINUOUS
  0
LAYER
  5
122
100
AcDbSymbolTableRecord
100
AcDbLayerTableRecord
  2
LAYER237
 70
               0
 62
               7
  6
CONTINUOUS
  0
LAYER
  5
123
100
AcDbSymbolTableRecord
100
AcDbLayerTableRecord
  2
LAYER238
 70
               0
 62
               7
  6
CONTINUOUS
  0
LAYER
  5
124
100
AcDbSymbolTableRecord
100
AcDbLayerTableRecord
  2
LAYER239
 70
               0
 62
               7
  6
CONTINUOUS
  0
LAYER
  5
125
100
AcDbSymbolTableRecord
100
AcDbLayerTableRecord
  2
LAYER240
 70
               0
 62
               7
  6
CONTINUOUS
  0
LAYER
  5
126
100
AcDbSymbolTableRecord
100
AcDbLayerTableRecord
  2
LAYER241
 70
               0
 62
               7
  6
CONTINUOUS
  0
LAYER
  5
127
100
AcDbSymbolTableRecord
100
AcDbLayerTableRecord
  2
LAYER242
 70
               0
 62
               7
  6
CONTINUOUS
  0
LAYER
  5
128
100
AcDbSymbolTableRecord
100
AcDbLayerTableRecord
  2
LAYER243
 70
               0
 62
               7
  6
CONTINUOUS
  0
LAYER
  5
129
100
AcDbSymbolTableRecord
100
AcDbLayerTableRecord
  2
LAYER244
 70
               0
 62
               7
  6
CONTINUOUS
  0
LAYER
  5
12A
100
AcDbSymbolTableRecord
100
AcDbLayerTableRecord
  2
LAYER245
 70
               0
 62
               7
  6
CONTINUOUS
  0
LAYER
  5
12B
100
AcDbSymbolTableRecord
100
AcDbLayerTableRecord
  2
LAYER246
 70
               0
 62
               7
  6
CONTINUOUS
  0
LAYER
  5
12C
100
AcDbSymbolTableRecord
100
AcDbLayerTableRecord
  2
LAYER247
 70
               0
 62
               7
  6
CONTINUOUS
  0
LAYER
  5
12D
100
AcDbSymbolTableRecord
100
AcDbLayerTableRecord
  2
LAYER248
 70
               0
 62
               7
  6
CONTINUOUS
  0
LAYER
  5
12E
100
AcDbSymbolTableRecord
100
AcDbLayerTableRecord
  2
LAYER249
 70
               0
 62
               7
  6
CONTINUOUS
  0
LAYER
  5
12F
100
AcDbSymbolTableRecord
100
AcDbLayerTableRecord
  2
LAYER250
 70
               0
 62
               7
  6
CONTINUOUS
  0
LAYER
  5
130
100
AcDbSymbolTableRecord
100
AcDbLayerTableRecord
  2
LAYER251
 70
               0
 62
               7
  6
CONTINUOUS
  0
LAYER
  5
131
100
AcDbSymbolTableRecord
100
AcDbLayerTableRecord
  2
LAYER252
 70
               0
 62
               7
  6
CONTINUOUS
  0
LAYER
  5
132
100
AcDbSymbolTableRecord
100
AcDbLayerTableRecord
  2
LAYER253
 70
               0
 62
               7
  6
CONTINUOUS
  0
LAYER
  5
133
100
AcDbSymbolTableRecord
100
AcDbLayerTableRecord
  2
LAYER254
 70
               0
 62
               7
  6
CONTINUOUS
  0
LAYER
  5
134
100
AcDbSymbolTableRecord
100
AcDbLayerTableRecord
  2
LAYER255
 70
               0
 62
               7
  6
CONTINUOUS
  0
ENDTAB
  0
TABLE
  2
STYLE
  5
3
100
AcDbSymbolTable
 70
               2
  0
STYLE
  5
17
100
AcDbSymbolTableRecord
100
AcDbTextStyleTableRecord
  2
STANDARD
 70
               0
 40
0.0
 41
1.0
 50
0.0
 71
               0
 42
35.0
  3
txt.shx
  4
bigfont.shx
  0
STYLE
  5
135
100
AcDbSymbolTableRecord
100
AcDbTextStyleTableRecord
  2
FdaStyle1
 70
               0
 40
0.0
 41
0.8
 50
0.0
 71
               0
 42
100.0
  3
MS Mincho.ttf
  4
bigfont.shx
1001
ACAD
1000
MS Mincho
1071
    32786
  0
ENDTAB
  0
TABLE
  2
VIEW
  5
5
100
AcDbSymbolTable
 70
               1
  0
VIEW
  5
136
100
AcDbSymbolTableRecord
100
AcDbViewTableRecord
  2
QQQQ
 70
               0
 40
2705.04
 10
30.001703540813651
 20
-136.53860936408091
 41
3069.6900000000001
 11
0.0
 21
0.0
 31
1.0
 12
100.0
 22
100.0
 32
0.0
 42
50.0
 43
0.0
 44
0.0
 50
0.0
 71
               0
  0
ENDTAB
  0
TABLE
  2
UCS
  5
6
100
AcDbSymbolTable
 70
               0
  0
ENDTAB
  0
TABLE
  2
APPID
  5
8
100
AcDbSymbolTable
 70
               1
  0
APPID
  5
16
100
AcDbSymbolTableRecord
100
AcDbRegAppTableRecord
  2
ACAD
 70
               0
  0
ENDTAB
  0
TABLE
  2
DIMSTYLE
  5
9
100
AcDbSymbolTable
 70
               1
  0
DIMSTYLE
105
18
100
AcDbSymbolTableRecord
100
AcDbDimStyleTableRecord
  2
STANDARD
 70
               0
  3

  4

  5

  6

  7

 40
1.0
 41
0.18
 42
0.0625
 43
0.38
 44
0.18
 45
0.0
 46
0.0
 47
0.0
 48
0.0
140
0.18
141
0.09
142
0.0
143
25.399999999999999
144
1.0
145
0.0
146
1.0
147
0.09
 71
               0
 72
               0
 73
               1
 74
               1
 75
               0
 76
               0
 77
               0
 78
               0
170
               0
171
               2
172
               0
173
               0
174
               0
175
               0
176
               0
177
               0
178
               0
270
               2
271
               4
272
               4
273
               2
274
               2
340
17
275
               0
280
               0
281
               0
282
               0
283
               1
284
               0
285
               0
286
               0
287
               0
288
               0
  0
ENDTAB
  0
TABLE
  2
BLOCK_RECORD
  5
1
100
AcDbSymbolTable
 70
              33
  0
BLOCK_RECORD
  5
A
100
AcDbSymbolTableRecord
100
AcDbBlockTableRecord
  2
*MODEL_SPACE
  0
BLOCK_RECORD
  5
B
100
AcDbSymbolTableRecord
100
AcDbBlockTableRecord
  2
*PAPER_SPACE
  0
BLOCK_RECORD
  5
137
100
AcDbSymbolTableRecord
100
AcDbBlockTableRecord
  2
GROUP_1
  0
BLOCK_RECORD
  5
138
100
AcDbSymbolTableRecord
100
AcDbBlockTableRecord
  2
_OPEN
  0
BLOCK_RECORD
  5
139
100
AcDbSymbolTableRecord
100
AcDbBlockTableRecord
  2
GROUP_2
  0
BLOCK_RECORD
  5
13A
100
AcDbSymbolTableRecord
100
AcDbBlockTableRecord
  2
GROUP_3
  0
BLOCK_RECORD
  5
13B
100
AcDbSymbolTableRecord
100
AcDbBlockTableRecord
  2
GROUP_4
  0
BLOCK_RECORD
  5
13C
100
AcDbSymbolTableRecord
100
AcDbBlockTableRecord
  2
GROUP_5
  0
BLOCK_RECORD
  5
13D
100
AcDbSymbolTableRecord
100
AcDbBlockTableRecord
  2
GROUP_6
  0
BLOCK_RECORD
  5
13E
100
AcDbSymbolTableRecord
100
AcDbBlockTableRecord
  2
GROUP_7
  0
BLOCK_RECORD
  5
13F
100
AcDbSymbolTableRecord
100
AcDbBlockTableRecord
  2
GROUP_8
  0
BLOCK_RECORD
  5
140
100
AcDbSymbolTableRecord
100
AcDbBlockTableRecord
  2
GROUP_9
  0
BLOCK_RECORD
  5
141
100
AcDbSymbolTableRecord
100
AcDbBlockTableRecord
  2
GROUP_10
  0
BLOCK_RECORD
  5
142
100
AcDbSymbolTableRecord
100
AcDbBlockTableRecord
  2
GROUP_11
  0
BLOCK_RECORD
  5
143
100
AcDbSymbolTableRecord
100
AcDbBlockTableRecord
  2
GROUP_12
  0
BLOCK_RECORD
  5
144
100
AcDbSymbolTableRecord
100
AcDbBlockTableRecord
  2
GROUP_13
  0
BLOCK_RECORD
  5
145
100
AcDbSymbolTableRecord
100
AcDbBlockTableRecord
  2
GROUP_14
  0
BLOCK_RECORD
  5
146
100
AcDbSymbolTableRecord
100
AcDbBlockTableRecord
  2
GROUP_15
  0
BLOCK_RECORD
  5
147
100
AcDbSymbolTableRecord
100
AcDbBlockTableRecord
  2
GROUP_16
  0
BLOCK_RECORD
  5
148
100
AcDbSymbolTableRecord
100
AcDbBlockTableRecord
  2
GROUP_17
  0
BLOCK_RECORD
  5
149
100
AcDbSymbolTableRecord
100
AcDbBlockTableRecord
  2
GROUP_18
  0
BLOCK_RECORD
  5
14A
100
AcDbSymbolTableRecord
100
AcDbBlockTableRecord
  2
GROUP_19
  0
BLOCK_RECORD
  5
14B
100
AcDbSymbolTableRecord
100
AcDbBlockTableRecord
  2
GROUP_20
  0
BLOCK_RECORD
  5
14C
100
AcDbSymbolTableRecord
100
AcDbBlockTableRecord
  2
GROUP_21
  0
BLOCK_RECORD
  5
14D
100
AcDbSymbolTableRecord
100
AcDbBlockTableRecord
  2
GROUP_22
  0
BLOCK_RECORD
  5
14E
100
AcDbSymbolTableRecord
100
AcDbBlockTableRecord
  2
GROUP_23
  0
BLOCK_RECORD
  5
14F
100
AcDbSymbolTableRecord
100
AcDbBlockTableRecord
  2
_ORIGIN
  0
BLOCK_RECORD
  5
150
100
AcDbSymbolTableRecord
100
AcDbBlockTableRecord
  2
_DOT
  0
BLOCK_RECORD
  5
151
100
AcDbSymbolTableRecord
100
AcDbBlockTableRecord
  2
GROUP_24
  0
BLOCK_RECORD
  5
152
100
AcDbSymbolTableRecord
100
AcDbBlockTableRecord
  2
GROUP_25
  0
BLOCK_RECORD
  5
153
100
AcDbSymbolTableRecord
100
AcDbBlockTableRecord
  2
GROUP_26
  0
BLOCK_RECORD
  5
154
100
AcDbSymbolTableRecord
100
AcDbBlockTableRecord
  2
GROUP_27
  0
BLOCK_RECORD
  5
155
100
AcDbSymbolTableRecord
100
AcDbBlockTableRecord
  2
GROUP_28
  0
BLOCK_RECORD
  5
156
100
AcDbSymbolTableRecord
100
AcDbBlockTableRecord
  2
GROUP_29
  0
BLOCK_RECORD
  5
157
100
AcDbSymbolTableRecord
100
AcDbBlockTableRecord
  2
GROUP_30
  0
ENDTAB
  0
ENDSEC
  0
SECTION
  2
BLOCKS
  0
BLOCK
  5
D
100
AcDbEntity
  8
0
100
AcDbBlockBegin
  2
*MODEL_SPACE
 70
               0
 10
0.0
 20
0.0
 30
0.0
  3
*MODEL_SPACE
  1

  0
ENDBLK
  5
E
100
AcDbEntity
  8
0
100
AcDbBlockEnd
  0
BLOCK
  5
F
100
AcDbEntity
 67
               1
  8
0
100
AcDbBlockBegin
  2
*PAPER_SPACE
 70
               0
 10
0.0
 20
0.0
 30
0.0
  3
*PAPER_SPACE
  1

  0
ENDBLK
  5
10
100
AcDbEntity
 67
               1
  8
0
100
AcDbBlockEnd
  0
BLOCK
  5
158
100
AcDbEntity
  8
0
100
AcDbBlockBegin
  2
GROUP_1
 70
               0
 10
0.0
 20
0.0
 30
0.0
  3
GROUP_1
  1

  0
LINE
  5
159
100
AcDbEntity
  8
LAYER064
  6
CONTINUOUS
 62
               9
100
AcDbLine
 10
-1213.9982964591863
 20
922.53860936408114
 30
0.0
 11
-1213.9982964591863
 21
1085.5386093640809
 31
0.0
  0
LINE
  5
15A
100
AcDbEntity
  8
LAYER064
  6
CONTINUOUS
 62
               9
100
AcDbLine
 10
-1238.9982964591863
 20
947.53860936408103
 30
0.0
 11
-1238.9982964591863
 21
1085.5386093640809
 31
0.0
  0
LINE
  5
15B
100
AcDbEntity
  8
LAYER064
  6
CONTINUOUS
 62
               9
100
AcDbLine
 10
-1238.9982964591863
 20
1075.5386093640809
 30
0.0
 11
-1213.9982964591863
 21
1075.5386093640809
 31
0.0
  0
LINE
  5
15C
100
AcDbEntity
  8
LAYER064
  6
CONTINUOUS
 62
               9
100
AcDbLine
 10
-263.99829645918635
 20
922.53860936408103
 30
0.0
 11
-263.99829645918635
 21
1085.5386093640809
 31
0.0
  0
LINE
  5
15D
100
AcDbEntity
  8
LAYER064
  6
CONTINUOUS
 62
               9
100
AcDbLine
 10
-238.99829645918635
 20
947.53860936408103
 30
0.0
 11
-238.99829645918635
 21
1085.5386093640809
 31
0.0
  0
LINE
  5
15E
100
AcDbEntity
  8
LAYER064
  6
CONTINUOUS
 62
               9
100
AcDbLine
 10
-263.99829645918635
 20
1075.5386093640809
 30
0.0
 11
-238.99829645918635
 21
1075.5386093640809
 31
0.0
  0
LINE
  5
15F
100
AcDbEntity
  8
LAYER064
  6
CONTINUOUS
 62
               9
100
AcDbLine
 10
-1358.9982964591863
 20
1075.5386093640809
 30
0.0
 11
-1238.9982964591863
 21
1075.5386093640809
 31
0.0
  0
LINE
  5
160
100
AcDbEntity
  8
LAYER064
  6
CONTINUOUS
 62
               9
100
AcDbLine
 10
-1238.9982964591863
 20
1075.5386093640809
 30
0.0
 11
-1263.8613440745394
 21
1072.9253999816005
 31
0.0
  0
LINE
  5
161
100
AcDbEntity
  8
LAYER064
  6
CONTINUOUS
 62
               9
100
AcDbLine
 10
-1238.9982964591863
 20
1075.5386093640809
 30
0.0
 11
-1263.8613440745394
 21
1078.1518187465613
 31
0.0
  0
LINE
  5
162
100
AcDbEntity
  8
LAYER064
  6
CONTINUOUS
 62
               9
100
AcDbLine
 10
-101.49829645918635
 20
1075.5386093640809
 30
0.0
 11
-238.99829645918635
 21
1075.5386093640809
 31
0.0
  0
LINE
  5
163
100
AcDbEntity
  8
LAYER064
  6
CONTINUOUS
 62
               9
100
AcDbLine
 10
-238.99829645918635
 20
1075.5386093640809
 30
0.0
 11
-214.13524884383324
 21
1078.1518187465613
 31
0.0
  0
LINE
  5
164
100
AcDbEntity
  8
LAYER064
  6
CONTINUOUS
 62
               9
100
AcDbLine
 10
-238.99829645918635
 20
1075.5386093640809
 30
0.0
 11
-214.13524884383324
 21
1072.9253999816005
 31
0.0
  0
LINE
  5
165
100
AcDbEntity
  8
LAYER064
  6
CONTINUOUS
 62
               9
100
AcDbLine
 10
-1213.9982964591863
 20
1075.5386093640809
 30
0.0
 11
-263.99829645918635
 21
1075.5386093640809
 31
0.0
  0
LINE
  5
166
100
AcDbEntity
  8
LAYER064
  6
CONTINUOUS
 62
               9
100
AcDbLine
 10
-1213.9982964591863
 20
1075.5386093640809
 30
0.0
 11
-1189.1352490749796
 21
1078.1518209457722
 31
0.0
  0
LINE
  5
167
100
AcDbEntity
  8
LAYER064
  6
CONTINUOUS
 62
               9
100
AcDbLine
 10
-1213.9982964591863
 20
1075.5386093640809
 30
0.0
 11
-1189.1352490749796
 21
1072.9253977823896
 31
0.0
  0
LINE
  5
168
100
AcDbEntity
  8
LAYER064
  6
CONTINUOUS
 62
               9
100
AcDbLine
 10
-263.99829645918635
 20
1075.5386093640809
 30
0.0
 11
-288.86134407453949
 21
1072.9253999816005
 31
0.0
  0
LINE
  5
169
100
AcDbEntity
  8
LAYER064
  6
CONTINUOUS
 62
               9
100
AcDbLine
 10
-263.99829645918635
 20
1075.5386093640809
 30
0.0
 11
-288.86134407453949
 21
1078.1518187465613
 31
0.0
  0
TEXT
  5
16A
100
AcDbEntity
  8
LAYER064
 62
               7
100
AcDbText
 10
-1348.9982964591863
 20
1085.5386093640809
 30
0.0
 40
35.0
  1
25
 72
               5
 11
-1278.9982964591863
 21
1085.5386093640809
 31
0.0
100
AcDbText
  0
TEXT
  5
16B
100
AcDbEntity
  8
LAYER064
 62
               7
100
AcDbText
 10
-931.49829645918635
 20
1085.5386093640809
 30
0.0
 40
35.0
  1
950（P50×19）
 72
               5
 11
-546.49829645918635
 21
1085.5386093640809
 31
0.0
100
AcDbText
  0
TEXT
  5
16C
100
AcDbEntity
  8
LAYER064
 62
               7
100
AcDbText
 10
-181.49829645918635
 20
1085.5386093640809
 30
0.0
 40
35.0
  1
25
 72
               5
 11
-111.49829645918635
 21
1085.5386093640809
 31
0.0
100
AcDbText
  0
ENDBLK
  5
16D
100
AcDbEntity
  8
0
100
AcDbBlockEnd
  0
BLOCK
  5
16E
100
AcDbEntity
  8
0
100
AcDbBlockBegin
  2
_OPEN
 70
               0
 10
0.0
 20
0.0
 30
0.0
  3
_OPEN
  1

  0
LINE
  5
16F
100
AcDbEntity
  8
LAYER064
  6
CONTINUOUS
 62
               0
100
AcDbLine
 10
-1.0
 20
0.1666666666666667
 30
0.0
 11
0.0
 21
0.0
 31
0.0
  0
LINE
  5
170
100
AcDbEntity
  8
LAYER064
  6
CONTINUOUS
 62
               0
100
AcDbLine
 10
0.0
 20
0.0
 30
0.0
 11
-1.0
 21
-0.1666666666666667
 31
0.0
  0
LINE
  5
171
100
AcDbEntity
  8
LAYER064
  6
CONTINUOUS
 62
               0
100
AcDbLine
 10
0.0
 20
0.0
 30
0.0
 11
-1.0
 21
0.0
 31
0.0
  0
ENDBLK
  5
172
100
AcDbEntity
  8
0
100
AcDbBlockEnd
  0
BLOCK
  5
173
100
AcDbEntity
  8
0
100
AcDbBlockBegin
  2
GROUP_2
 70
               0
 10
0.0
 20
0.0
 30
0.0
  3
GROUP_2
  1

  0
LINE
  5
174
100
AcDbEntity
  8
LAYER064
  6
CONTINUOUS
 62
               9
100
AcDbLine
 10
-1238.9982964591863
 20
947.53860936408103
 30
0.0
 11
-1238.9982964591863
 21
1165.5386093640809
 31
0.0
  0
LINE
  5
175
100
AcDbEntity
  8
LAYER064
  6
CONTINUOUS
 62
               9
100
AcDbLine
 10
-238.99829645918635
 20
947.53860936408103
 30
0.0
 11
-238.99829645918635
 21
1165.5386093640809
 31
0.0
  0
LINE
  5
176
100
AcDbEntity
  8
LAYER064
  6
CONTINUOUS
 62
               9
100
AcDbLine
 10
-1238.9982964591863
 20
1155.5386093640809
 30
0.0
 11
-238.99829645918635
 21
1155.5386093640809
 31
0.0
  0
LINE
  5
177
100
AcDbEntity
  8
LAYER064
  6
CONTINUOUS
 62
               9
100
AcDbLine
 10
-1238.9982964591863
 20
1155.5386093640809
 30
0.0
 11
-1214.1352490749796
 21
1158.1518209457722
 31
0.0
  0
LINE
  5
178
100
AcDbEntity
  8
LAYER064
  6
CONTINUOUS
 62
               9
100
AcDbLine
 10
-1238.9982964591863
 20
1155.5386093640809
 30
0.0
 11
-1214.1352490749796
 21
1152.9253977823896
 31
0.0
  0
LINE
  5
179
100
AcDbEntity
  8
LAYER064
  6
CONTINUOUS
 62
               9
100
AcDbLine
 10
-238.99829645918635
 20
1155.5386093640809
 30
0.0
 11
-263.86134407453949
 21
1152.9253999816005
 31
0.0
  0
LINE
  5
17A
100
AcDbEntity
  8
LAYER064
  6
CONTINUOUS
 62
               9
100
AcDbLine
 10
-238.99829645918635
 20
1155.5386093640809
 30
0.0
 11
-263.86134407453949
 21
1158.1518187465613
 31
0.0
  0
TEXT
  5
17B
100
AcDbEntity
  8
LAYER064
 62
               7
100
AcDbText
 10
-808.99829645918635
 20
1165.5386093640809
 30
0.0
 40
35.0
  1
1000
 72
               5
 11
-668.99829645918635
 21
1165.5386093640809
 31
0.0
100
AcDbText
  0
ENDBLK
  5
17C
100
AcDbEntity
  8
0
100
AcDbBlockEnd
  0
BLOCK
  5
17D
100
AcDbEntity
  8
0
100
AcDbBlockBegin
  2
GROUP_3
 70
               0
 10
0.0
 20
0.0
 30
0.0
  3
GROUP_3
  1

  0
LINE
  5
17E
100
AcDbEntity
  8
LAYER064
  6
CONTINUOUS
 62
               9
100
AcDbLine
 10
-1250.9982964591863
 20
959.53860936408091
 30
0.0
 11
-1250.9982964591863
 21
1245.5386093640809
 31
0.0
  0
LINE
  5
17F
100
AcDbEntity
  8
LAYER064
  6
CONTINUOUS
 62
               9
100
AcDbLine
 10
-226.99829645918635
 20
959.53860936408091
 30
0.0
 11
-226.99829645918635
 21
1245.5386093640809
 31
0.0
  0
LINE
  5
180
100
AcDbEntity
  8
LAYER064
  6
CONTINUOUS
 62
               9
100
AcDbLine
 10
-1250.9982964591863
 20
1235.5386093640809
 30
0.0
 11
-226.99829645918635
 21
1235.5386093640809
 31
0.0
  0
LINE
  5
181
100
AcDbEntity
  8
LAYER064
  6
CONTINUOUS
 62
               9
100
AcDbLine
 10
-1250.9982964591863
 20
1235.5386093640809
 30
0.0
 11
-1226.1352490749796
 21
1238.1518209457722
 31
0.0
  0
LINE
  5
182
100
AcDbEntity
  8
LAYER064
  6
CONTINUOUS
 62
               9
100
AcDbLine
 10
-1250.9982964591863
 20
1235.5386093640809
 30
0.0
 11
-1226.1352490749796
 21
1232.9253977823896
 31
0.0
  0
LINE
  5
183
100
AcDbEntity
  8
LAYER064
  6
CONTINUOUS
 62
               9
100
AcDbLine
 10
-226.99829645918635
 20
1235.5386093640809
 30
0.0
 11
-251.86134407453946
 21
1232.9253999816005
 31
0.0
  0
LINE
  5
184
100
AcDbEntity
  8
LAYER064
  6
CONTINUOUS
 62
               9
100
AcDbLine
 10
-226.99829645918635
 20
1235.5386093640809
 30
0.0
 11
-251.86134407453946
 21
1238.1518187465613
 31
0.0
  0
TEXT
  5
185
100
AcDbEntity
  8
LAYER064
 62
               7
100
AcDbText
 10
-808.99829645918635
 20
1245.5386093640809
 30
0.0
 40
35.0
  1
1024
 72
               5
 11
-668.99829645918635
 21
1245.5386093640809
 31
0.0
100
AcDbText
  0
ENDBLK
  5
186
100
AcDbEntity
  8
0
100
AcDbBlockEnd
  0
BLOCK
  5
187
100
AcDbEntity
  8
0
100
AcDbBlockBegin
  2
GROUP_4
 70
               0
 10
0.0
 20
0.0
 30
0.0
  3
GROUP_4
  1

  0
LINE
  5
188
100
AcDbEntity
  8
LAYER064
  6
CONTINUOUS
 62
               9
100
AcDbLine
 10
-200.99829645918635
 20
985.53860936408091
 30
0.0
 11
-200.99829645918635
 21
1325.5386093640809
 31
0.0
  0
LINE
  5
189
100
AcDbEntity
  8
LAYER064
  6
CONTINUOUS
 62
               9
100
AcDbLine
 10
-1276.9982964591863
 20
985.53860936408091
 30
0.0
 11
-1276.9982964591863
 21
1325.5386093640809
 31
0.0
  0
LINE
  5
18A
100
AcDbEntity
  8
LAYER064
  6
CONTINUOUS
 62
               9
100
AcDbLine
 10
-200.99829645918635
 20
1315.5386093640809
 30
0.0
 11
-1276.9982964591863
 21
1315.5386093640809
 31
0.0
  0
LINE
  5
18B
100
AcDbEntity
  8
LAYER064
  6
CONTINUOUS
 62
               9
100
AcDbLine
 10
-200.99829645918635
 20
1315.5386093640809
 30
0.0
 11
-225.86134384339317
 21
1312.9253977823896
 31
0.0
  0
LINE
  5
18C
100
AcDbEntity
  8
LAYER064
  6
CONTINUOUS
 62
               9
100
AcDbLine
 10
-200.99829645918635
 20
1315.5386093640809
 30
0.0
 11
-225.86134384339317
 21
1318.1518209457722
 31
0.0
  0
LINE
  5
18D
100
AcDbEntity
  8
LAYER064
  6
CONTINUOUS
 62
               9
100
AcDbLine
 10
-1276.9982964591863
 20
1315.5386093640809
 30
0.0
 11
-1252.1352488438333
 21
1318.1518187465613
 31
0.0
  0
LINE
  5
18E
100
AcDbEntity
  8
LAYER064
  6
CONTINUOUS
 62
               9
100
AcDbLine
 10
-1276.9982964591863
 20
1315.5386093640809
 30
0.0
 11
-1252.1352488438333
 21
1312.9253999816005
 31
0.0
  0
TEXT
  5
18F
100
AcDbEntity
  8
LAYER064
 62
               7
100
AcDbText
 10
-808.99829645918635
 20
1325.5386093640809
 30
0.0
 40
35.0
  1
1076
 72
               5
 11
-668.99829645918635
 21
1325.5386093640809
 31
0.0
100
AcDbText
  0
ENDBLK
  5
190
100
AcDbEntity
  8
0
100
AcDbBlockEnd
  0
BLOCK
  5
191
100
AcDbEntity
  8
0
100
AcDbBlockBegin
  2
GROUP_5
 70
               0
 10
0.0
 20
0.0
 30
0.0
  3
GROUP_5
  1

  0
LINE
  5
192
100
AcDbEntity
  8
LAYER064
  6
CONTINUOUS
 62
               9
100
AcDbLine
 10
-253.99829645918635
 20
212.53860936408103
 30
0.0
 11
9.0017035408136508
 21
212.53860936408103
 31
0.0
  0
LINE
  5
193
100
AcDbEntity
  8
LAYER064
  6
CONTINUOUS
 62
               9
100
AcDbLine
 10
-228.99829645918635
 20
187.53860936408103
 30
0.0
 11
9.0017035408136508
 21
187.53860936408103
 31
0.0
  0
LINE
  5
194
100
AcDbEntity
  8
LAYER064
  6
CONTINUOUS
 62
               9
100
AcDbLine
 10
-0.9982964591863492
 20
187.53860936408103
 30
0.0
 11
-0.9982964591863492
 21
212.53860936408103
 31
0.0
  0
LINE
  5
195
100
AcDbEntity
  8
LAYER064
  6
CONTINUOUS
 62
               9
100
AcDbLine
 10
-253.99829645918635
 20
912.53860936408103
 30
0.0
 11
9.0017035408136508
 21
912.53860936408103
 31
0.0
  0
LINE
  5
196
100
AcDbEntity
  8
LAYER064
  6
CONTINUOUS
 62
               9
100
AcDbLine
 10
-228.99829645918635
 20
937.53860936408103
 30
0.0
 11
9.0017035408136508
 21
937.53860936408103
 31
0.0
  0
LINE
  5
197
100
AcDbEntity
  8
LAYER064
  6
CONTINUOUS
 62
               9
100
AcDbLine
 10
-0.9982964591863492
 20
912.53860936408103
 30
0.0
 11
-0.9982964591863492
 21
937.53860936408103
 31
0.0
  0
LINE
  5
198
100
AcDbEntity
  8
LAYER064
  6
CONTINUOUS
 62
               9
100
AcDbLine
 10
-0.9982964591863492
 20
212.53860936408103
 30
0.0
 11
-0.9982964591863492
 21
912.53860936408103
 31
0.0
  0
LINE
  5
199
100
AcDbEntity
  8
LAYER064
  6
CONTINUOUS
 62
               9
100
AcDbLine
 10
-0.9982964591863492
 20
212.53860936408103
 30
0.0
 11
-3.6115080408776881
 21
237.40165674828785
 31
0.0
  0
LINE
  5
19A
100
AcDbEntity
  8
LAYER064
  6
CONTINUOUS
 62
               9
100
AcDbLine
 10
-0.9982964591863492
 20
212.53860936408103
 30
0.0
 11
1.6149151225049869
 21
237.40165674828785
 31
0.0
  0
LINE
  5
19B
100
AcDbEntity
  8
LAYER064
  6
CONTINUOUS
 62
               9
100
AcDbLine
 10
-0.9982964591863492
 20
912.53860936408103
 30
0.0
 11
1.6149129232940167
 21
887.67556174872789
 31
0.0
  0
LINE
  5
19C
100
AcDbEntity
  8
LAYER064
  6
CONTINUOUS
 62
               9
100
AcDbLine
 10
-0.9982964591863492
 20
912.53860936408103
 30
0.0
 11
-3.6115058416667178
 21
887.67556174872789
 31
0.0
  0
LINE
  5
19D
100
AcDbEntity
  8
LAYER064
  6
CONTINUOUS
 62
               9
100
AcDbLine
 10
-0.9982964591863492
 20
1090.1066001262768
 30
0.0
 11
-0.9982964591863492
 21
937.53860936408103
 31
0.0
  0
LINE
  5
19E
100
AcDbEntity
  8
LAYER064
  6
CONTINUOUS
 62
               9
100
AcDbLine
 10
-0.9982964591863492
 20
937.53860936408103
 30
0.0
 11
-3.6115058416667178
 21
962.40165697943416
 31
0.0
  0
LINE
  5
19F
100
AcDbEntity
  8
LAYER064
  6
CONTINUOUS
 62
               9
100
AcDbLine
 10
-0.9982964591863492
 20
937.53860936408103
 30
0.0
 11
1.6149129232940225
 21
962.40165697943416
 31
0.0
  0
LINE
  5
1A0
100
AcDbEntity
  8
LAYER064
  6
CONTINUOUS
 62
               9
100
AcDbLine
 10
-0.9982964591863492
 20
15.038609364081026
 30
0.0
 11
-0.9982964591863492
 21
187.53860936408103
 31
0.0
  0
LINE
  5
1A1
100
AcDbEntity
  8
LAYER064
  6
CONTINUOUS
 62
               9
100
AcDbLine
 10
-0.9982964591863492
 20
187.53860936408103
 30
0.0
 11
1.6149129232940167
 21
162.67556174872792
 31
0.0
  0
LINE
  5
1A2
100
AcDbEntity
  8
LAYER064
  6
CONTINUOUS
 62
               9
100
AcDbLine
 10
-0.9982964591863492
 20
187.53860936408103
 30
0.0
 11
-3.6115058416667178
 21
162.67556174872792
 31
0.0
  0
TEXT
  5
1A3
100
AcDbEntity
  8
LAYER064
 62
               7
100
AcDbText
 10
-10.998296459186356
 20
25.038609364081022
 30
0.0
 40
35.0
  1
25
 50
89.999999999999801
 72
               5
 11
-10.998296459186349
 21
95.038609364081026
 31
0.0
100
AcDbText
  0
TEXT
  5
1A4
100
AcDbEntity
  8
LAYER064
 62
               7
100
AcDbText
 10
-10.998296459186363
 20
370.03860936408103
 30
0.0
 40
35.0
  1
700（P50×14）
 50
89.999999999999801
 72
               5
 11
-10.998296459186337
 21
755.03860936408103
 31
0.0
100
AcDbText
  0
TEXT
  5
1A5
100
AcDbEntity
  8
LAYER064
 62
               7
100
AcDbText
 10
-10.998296459186349
 20
1010.1066001262768
 30
0.0
 40
35.0
  1
25
 50
89.999999999999801
 72
               5
 11
-10.998296459186346
 21
1080.1066001262768
 31
0.0
100
AcDbText
  0
ENDBLK
  5
1A6
100
AcDbEntity
  8
0
100
AcDbBlockEnd
  0
BLOCK
  5
1A7
100
AcDbEntity
  8
0
100
AcDbBlockBegin
  2
GROUP_6
 70
               0
 10
0.0
 20
0.0
 30
0.0
  3
GROUP_6
  1

  0
LINE
  5
1A8
100
AcDbEntity
  8
LAYER064
  6
CONTINUOUS
 62
               9
100
AcDbLine
 10
-228.99829645918635
 20
187.53860936408103
 30
0.0
 11
109.00170354081365
 21
187.53860936408103
 31
0.0
  0
LINE
  5
1A9
100
AcDbEntity
  8
LAYER064
  6
CONTINUOUS
 62
               9
100
AcDbLine
 10
-228.99829645918635
 20
937.53860936408103
 30
0.0
 11
109.00170354081365
 21
937.53860936408103
 31
0.0
  0
LINE
  5
1AA
100
AcDbEntity
  8
LAYER064
  6
CONTINUOUS
 62
               9
100
AcDbLine
 10
99.001703540813651
 20
187.53860936408103
 30
0.0
 11
99.001703540813651
 21
937.53860936408103
 31
0.0
  0
LINE
  5
1AB
100
AcDbEntity
  8
LAYER064
  6
CONTINUOUS
 62
               9
100
AcDbLine
 10
99.001703540813651
 20
187.53860936408103
 30
0.0
 11
96.388491959122305
 21
212.40165674828785
 31
0.0
  0
LINE
  5
1AC
100
AcDbEntity
  8
LAYER064
  6
CONTINUOUS
 62
               9
100
AcDbLine
 10
99.001703540813651
 20
187.53860936408103
 30
0.0
 11
101.61491512250498
 21
212.40165674828785
 31
0.0
  0
LINE
  5
1AD
100
AcDbEntity
  8
LAYER064
  6
CONTINUOUS
 62
               9
100
AcDbLine
 10
99.001703540813651
 20
937.53860936408103
 30
0.0
 11
101.61491292329401
 21
912.67556174872789
 31
0.0
  0
LINE
  5
1AE
100
AcDbEntity
  8
LAYER064
  6
CONTINUOUS
 62
               9
100
AcDbLine
 10
99.001703540813651
 20
937.53860936408103
 30
0.0
 11
96.388494158333287
 21
912.67556174872789
 31
0.0
  0
TEXT
  5
1AF
100
AcDbEntity
  8
LAYER064
 62
               7
100
AcDbText
 10
89.001703540813651
 20
510.03860936408103
 30
0.0
 40
35.0
  1
750
 50
89.999999999999801
 72
               5
 11
89.001703540813651
 21
615.03860936408103
 31
0.0
100
AcDbText
  0
ENDBLK
  5
1B0
100
AcDbEntity
  8
0
100
AcDbBlockEnd
  0
BLOCK
  5
1B1
100
AcDbEntity
  8
0
100
AcDbBlockBegin
  2
GROUP_7
 70
               0
 10
0.0
 20
0.0
 30
0.0
  3
GROUP_7
  1

  0
LINE
  5
1B2
100
AcDbEntity
  8
LAYER064
  6
CONTINUOUS
 62
               9
100
AcDbLine
 10
-216.99829645918635
 20
175.53860936408086
 30
0.0
 11
209.00170354081365
 21
175.53860936408086
 31
0.0
  0
LINE
  5
1B3
100
AcDbEntity
  8
LAYER064
  6
CONTINUOUS
 62
               9
100
AcDbLine
 10
-216.99829645918635
 20
949.53860936408091
 30
0.0
 11
209.00170354081365
 21
949.53860936408091
 31
0.0
  0
LINE
  5
1B4
100
AcDbEntity
  8
LAYER064
  6
CONTINUOUS
 62
               9
100
AcDbLine
 10
199.00170354081365
 20
175.53860936408086
 30
0.0
 11
199.00170354081365
 21
949.53860936408091
 31
0.0
  0
LINE
  5
1B5
100
AcDbEntity
  8
LAYER064
  6
CONTINUOUS
 62
               9
100
AcDbLine
 10
199.00170354081365
 20
175.53860936408086
 30
0.0
 11
196.38849195912232
 21
200.40165674828768
 31
0.0
  0
LINE
  5
1B6
100
AcDbEntity
  8
LAYER064
  6
CONTINUOUS
 62
               9
100
AcDbLine
 10
199.00170354081365
 20
175.53860936408086
 30
0.0
 11
201.61491512250498
 21
200.40165674828768
 31
0.0
  0
LINE
  5
1B7
100
AcDbEntity
  8
LAYER064
  6
CONTINUOUS
 62
               9
100
AcDbLine
 10
199.00170354081365
 20
949.53860936408091
 30
0.0
 11
201.61491292329401
 21
924.67556174872777
 31
0.0
  0
LINE
  5
1B8
100
AcDbEntity
  8
LAYER064
  6
CONTINUOUS
 62
               9
100
AcDbLine
 10
199.00170354081365
 20
949.53860936408091
 30
0.0
 11
196.38849415833329
 21
924.67556174872777
 31
0.0
  0
TEXT
  5
1B9
100
AcDbEntity
  8
LAYER064
 62
               7
100
AcDbText
 10
189.00170354081365
 20
510.03860936408091
 30
0.0
 40
35.0
  1
774
 50
89.999999999999801
 72
               5
 11
189.00170354081365
 21
615.03860936408091
 31
0.0
100
AcDbText
  0
ENDBLK
  5
1BA
100
AcDbEntity
  8
0
100
AcDbBlockEnd
  0
BLOCK
  5
1BB
100
AcDbEntity
  8
0
100
AcDbBlockBegin
  2
GROUP_8
 70
               0
 10
0.0
 20
0.0
 30
0.0
  3
GROUP_8
  1

  0
LINE
  5
1BC
100
AcDbEntity
  8
LAYER064
  6
CONTINUOUS
 62
               9
100
AcDbLine
 10
-190.99829645918635
 20
105.53860936408086
 30
0.0
 11
309.00170354081365
 21
105.53860936408086
 31
0.0
  0
LINE
  5
1BD
100
AcDbEntity
  8
LAYER064
  6
CONTINUOUS
 62
               9
100
AcDbLine
 10
-190.99829645918635
 20
975.53860936408091
 30
0.0
 11
309.00170354081365
 21
975.53860936408091
 31
0.0
  0
LINE
  5
1BE
100
AcDbEntity
  8
LAYER064
  6
CONTINUOUS
 62
               9
100
AcDbLine
 10
299.00170354081365
 20
105.53860936408086
 30
0.0
 11
299.00170354081365
 21
975.53860936408091
 31
0.0
  0
LINE
  5
1BF
100
AcDbEntity
  8
LAYER064
  6
CONTINUOUS
 62
               9
100
AcDbLine
 10
299.00170354081365
 20
105.53860936408086
 30
0.0
 11
296.38849195912229
 21
130.40165674828768
 31
0.0
  0
LINE
  5
1C0
100
AcDbEntity
  8
LAYER064
  6
CONTINUOUS
 62
               9
100
AcDbLine
 10
299.00170354081365
 20
105.53860936408086
 30
0.0
 11
301.61491512250501
 21
130.40165674828768
 31
0.0
  0
LINE
  5
1C1
100
AcDbEntity
  8
LAYER064
  6
CONTINUOUS
 62
               9
100
AcDbLine
 10
299.00170354081365
 20
975.53860936408091
 30
0.0
 11
301.61491292329401
 21
950.67556174872777
 31
0.0
  0
LINE
  5
1C2
100
AcDbEntity
  8
LAYER064
  6
CONTINUOUS
 62
               9
100
AcDbLine
 10
299.00170354081365
 20
975.53860936408091
 30
0.0
 11
296.38849415833329
 21
950.67556174872777
 31
0.0
  0
TEXT
  5
1C3
100
AcDbEntity
  8
LAYER064
 62
               7
100
AcDbText
 10
289.00170354081365
 20
488.03860936408091
 30
0.0
 40
35.0
  1
870
 50
89.999999999999801
 72
               5
 11
289.00170354081365
 21
593.03860936408091
 31
0.0
100
AcDbText
  0
ENDBLK
  5
1C4
100
AcDbEntity
  8
0
100
AcDbBlockEnd
  0
BLOCK
  5
1C5
100
AcDbEntity
  8
0
100
AcDbBlockBegin
  2
GROUP_9
 70
               0
 10
0.0
 20
0.0
 30
0.0
  3
GROUP_9
  1

  0
LINE
  5
1C6
100
AcDbEntity
  8
0
  6
CONTINUOUS
 62
               3
100
AcDbLine
 10
-291.69829645918708
 20
-697.46139063591932
 30
0.0
 11
-291.69829645918708
 21
-706.84480988218831
 31
0.0
  0
LINE
  5
1C7
100
AcDbEntity
  8
0
  6
CONTINUOUS
 62
               3
100
AcDbLine
 10
-296.02842347810929
 20
-708.4613906359192
 30
0.0
 11
-321.96816944026432
 21
-708.4613906359192
 31
0.0
  0
LINE
  5
1C8
100
AcDbEntity
  8
0
  6
CONTINUOUS
 62
               3
100
AcDbLine
 10
-326.29829645918653
 20
-697.46139063591932
 30
0.0
 11
-326.29829645918653
 21
-706.84480988218831
 31
0.0
  0
LINE
  5
1C9
100
AcDbEntity
  8
0
  6
CONTINUOUS
 62
               3
100
AcDbLine
 10
-317.63804242134211
 20
-697.46139063591932
 30
0.0
 11
-317.63804242134211
 21
-706.84480988218831
 31
0.0
  0
ARC
  5
1CA
100
AcDbEntity
  8
0
  6
CONTINUOUS
 62
               3
100
AcDbCircle
 10
-296.02842347810929
 20
-701.85382300156868
 30
0.0
 40
6.6075676343505885
100
AcDbArc
 50
229.05544096051565
 51
310.94455903948312
  0
ARC
  5
1CB
100
AcDbEntity
  8
0
  6
CONTINUOUS
 62
               3
100
AcDbCircle
 10
-321.96816944026432
 20
-701.85382300156868
 30
0.0
 40
6.6075676343505885
100
AcDbArc
 50
229.05544096051565
 51
310.94455903948312
  0
ARC
  5
1CC
100
AcDbEntity
  8
0
  6
CONTINUOUS
 62
               3
100
AcDbCircle
 10
-308.99829645918635
 20
-684.5657258367404
 30
0.0
 40
23.895664799178892
100
AcDbArc
 50
248.80389248660356
 51
291.19610751339525
  0
ENDBLK
  5
1CD
100
AcDbEntity
  8
0
100
AcDbBlockEnd
  0
BLOCK
  5
1CE
100
AcDbEntity
  8
0
100
AcDbBlockBegin
  2
GROUP_10
 70
               0
 10
0.0
 20
0.0
 30
0.0
  3
GROUP_10
  1

  0
LINE
  5
1CF
100
AcDbEntity
  8
0
  6
CONTINUOUS
 62
               3
100
AcDbLine
 10
-318.99829645918635
 20
-748.46139063591909
 30
0.0
 11
-318.99829645918635
 21
-708.4613906359192
 31
0.0
  0
LINE
  5
1D0
100
AcDbEntity
  8
0
  6
CONTINUOUS
 62
               3
100
AcDbLine
 10
-298.99829645918635
 20
-748.46139063591909
 30
0.0
 11
-298.99829645918635
 21
-708.4613906359192
 31
0.0
  0
ENDBLK
  5
1D1
100
AcDbEntity
  8
0
100
AcDbBlockEnd
  0
BLOCK
  5
1D2
100
AcDbEntity
  8
0
100
AcDbBlockBegin
  2
GROUP_11
 70
               0
 10
0.0
 20
0.0
 30
0.0
  3
GROUP_11
  1

  0
LINE
  5
1D3
100
AcDbEntity
  8
0
  6
CONTINUOUS
 62
               3
100
AcDbLine
 10
-1186.2982964591865
 20
-697.46139063591932
 30
0.0
 11
-1186.2982964591865
 21
-706.84480988218831
 31
0.0
  0
LINE
  5
1D4
100
AcDbEntity
  8
0
  6
CONTINUOUS
 62
               3
100
AcDbLine
 10
-1181.9681694402643
 20
-708.4613906359192
 30
0.0
 11
-1156.0284234781088
 21
-708.4613906359192
 31
0.0
  0
LINE
  5
1D5
100
AcDbEntity
  8
0
  6
CONTINUOUS
 62
               3
100
AcDbLine
 10
-1151.6982964591866
 20
-697.46139063591932
 30
0.0
 11
-1151.6982964591866
 21
-706.84480988218831
 31
0.0
  0
LINE
  5
1D6
100
AcDbEntity
  8
0
  6
CONTINUOUS
 62
               3
100
AcDbLine
 10
-1160.358550497031
 20
-697.46139063591932
 30
0.0
 11
-1160.358550497031
 21
-706.84480988218831
 31
0.0
  0
ARC
  5
1D7
100
AcDbEntity
  8
0
  6
CONTINUOUS
 62
               3
100
AcDbCircle
 10
-1181.9681694402643
 20
-701.85382300156868
 30
0.0
 40
6.6075676343505885
100
AcDbArc
 50
229.05544096051565
 51
310.94455903948312
  0
ARC
  5
1D8
100
AcDbEntity
  8
0
  6
CONTINUOUS
 62
               3
100
AcDbCircle
 10
-1156.0284234781088
 20
-701.85382300156868
 30
0.0
 40
6.6075676343505885
100
AcDbArc
 50
229.05544096051565
 51
310.94455903948312
  0
ARC
  5
1D9
100
AcDbEntity
  8
0
  6
CONTINUOUS
 62
               3
100
AcDbCircle
 10
-1168.9982964591863
 20
-684.5657258367404
 30
0.0
 40
23.895664799178892
100
AcDbArc
 50
248.80389248660356
 51
291.19610751339525
  0
ENDBLK
  5
1DA
100
AcDbEntity
  8
0
100
AcDbBlockEnd
  0
BLOCK
  5
1DB
100
AcDbEntity
  8
0
100
AcDbBlockBegin
  2
GROUP_12
 70
               0
 10
0.0
 20
0.0
 30
0.0
  3
GROUP_12
  1

  0
LINE
  5
1DC
100
AcDbEntity
  8
0
  6
CONTINUOUS
 62
               3
100
AcDbLine
 10
-1158.9982964591863
 20
-748.46139063591909
 30
0.0
 11
-1158.9982964591863
 21
-708.4613906359192
 31
0.0
  0
LINE
  5
1DD
100
AcDbEntity
  8
0
  6
CONTINUOUS
 62
               3
100
AcDbLine
 10
-1178.9982964591863
 20
-748.46139063591909
 30
0.0
 11
-1178.9982964591863
 21
-708.4613906359192
 31
0.0
  0
ENDBLK
  5
1DE
100
AcDbEntity
  8
0
100
AcDbBlockEnd
  0
BLOCK
  5
1DF
100
AcDbEntity
  8
0
100
AcDbBlockBegin
  2
GROUP_13
 70
               0
 10
0.0
 20
0.0
 30
0.0
  3
GROUP_13
  1

  0
LINE
  5
1E0
100
AcDbEntity
  8
LAYER032
  6
CONTINUOUS
 62
             150
100
AcDbLine
 10
-740.55335539311363
 20
-140.96014000634537
 30
0.0
 11
-740.55335539311363
 21
-138.53541768131859
 31
0.0
  0
LINE
  5
1E1
100
AcDbEntity
  8
LAYER032
  6
CONTINUOUS
 62
             150
100
AcDbLine
 10
-738.53262945094957
 20
-140.96014000634537
 30
0.0
 11
-738.53262945094957
 21
-138.53541768131859
 31
0.0
  0
LINE
  5
1E2
100
AcDbEntity
  8
LAYER032
  6
CONTINUOUS
 62
             150
100
AcDbLine
 10
-740.55335539311363
 20
-140.96014000634537
 30
0.0
 11
-732.45335539311327
 21
-140.9601400063456
 31
0.0
  0
LINE
  5
1E3
100
AcDbEntity
  8
LAYER032
  6
CONTINUOUS
 62
             150
100
AcDbLine
 10
-739.5429924220316
 20
-138.16014000634542
 30
0.0
 11
-733.4637183641953
 21
-138.16014000634564
 31
0.0
  0
LINE
  5
1E4
100
AcDbEntity
  8
LAYER032
  6
CONTINUOUS
 62
             150
100
AcDbLine
 10
-732.45335539311327
 20
-140.9601400063456
 30
0.0
 11
-732.45335539311327
 21
-138.53541768131882
 31
0.0
  0
LINE
  5
1E5
100
AcDbEntity
  8
LAYER032
  6
CONTINUOUS
 62
             150
100
AcDbLine
 10
-734.47408133527733
 20
-140.9601400063456
 30
0.0
 11
-734.47408133527733
 21
-138.53541768131882
 31
0.0
  0
ARC
  5
1E6
100
AcDbEntity
  8
LAYER032
  6
CONTINUOUS
 62
             150
100
AcDbCircle
 10
-739.5429924220316
 20
-139.70788284336518
 30
0.0
 40
1.5477428370198298
100
AcDbArc
 50
49.24712957232741
 51
130.75287042767206
  0
ARC
  5
1E7
100
AcDbEntity
  8
LAYER032
  6
CONTINUOUS
 62
             150
100
AcDbCircle
 10
-733.4637183641953
 20
-139.70788284336541
 30
0.0
 40
1.5477428370198298
100
AcDbArc
 50
49.24712957232741
 51
130.75287042767206
  0
ARC
  5
1E8
100
AcDbEntity
  8
LAYER032
  6
CONTINUOUS
 62
             150
100
AcDbCircle
 10
-736.50335539311345
 20
-143.83432051207947
 30
0.0
 40
5.6741805057339203
100
AcDbArc
 50
69.045100081840488
 51
110.954899918159
  0
LINE
  5
1E9
100
AcDbEntity
  8
LAYER032
  6
CONTINUOUS
 62
             150
100
AcDbLine
 10
-732.70335539311327
 20
-141.9601400063456
 30
0.0
 11
-732.70335539311327
 21
-140.9601400063456
 31
0.0
  0
LINE
  5
1EA
100
AcDbEntity
  8
LAYER032
  6
CONTINUOUS
 62
             150
100
AcDbLine
 10
-740.30335539311363
 20
-141.96014000634537
 30
0.0
 11
-740.30335539311363
 21
-140.96014000634537
 31
0.0
  0
ENDBLK
  5
1EB
100
AcDbEntity
  8
0
100
AcDbBlockEnd
  0
BLOCK
  5
1EC
100
AcDbEntity
  8
0
100
AcDbBlockBegin
  2
GROUP_14
 70
               0
 10
0.0
 20
0.0
 30
0.0
  3
GROUP_14
  1

  0
LINE
  5
1ED
100
AcDbEntity
  8
LAYER032
  6
CONTINUOUS
 62
             150
100
AcDbLine
 10
-732.45335539311327
 20
-145.9601400063456
 30
0.0
 11
-732.45335539311327
 21
-148.38486233137237
 31
0.0
  0
LINE
  5
1EE
100
AcDbEntity
  8
LAYER032
  6
CONTINUOUS
 62
             150
100
AcDbLine
 10
-734.47408133527733
 20
-145.9601400063456
 30
0.0
 11
-734.47408133527733
 21
-148.38486233137237
 31
0.0
  0
LINE
  5
1EF
100
AcDbEntity
  8
LAYER032
  6
CONTINUOUS
 62
             150
100
AcDbLine
 10
-732.45335539311327
 20
-145.9601400063456
 30
0.0
 11
-740.55335539311363
 21
-145.96014000634537
 31
0.0
  0
LINE
  5
1F0
100
AcDbEntity
  8
LAYER032
  6
CONTINUOUS
 62
             150
100
AcDbLine
 10
-733.4637183641953
 20
-148.76014000634555
 30
0.0
 11
-739.5429924220316
 21
-148.76014000634532
 31
0.0
  0
LINE
  5
1F1
100
AcDbEntity
  8
LAYER032
  6
CONTINUOUS
 62
             150
100
AcDbLine
 10
-740.55335539311363
 20
-145.96014000634537
 30
0.0
 11
-740.55335539311363
 21
-148.38486233137215
 31
0.0
  0
LINE
  5
1F2
100
AcDbEntity
  8
LAYER032
  6
CONTINUOUS
 62
             150
100
AcDbLine
 10
-738.53262945094957
 20
-145.96014000634537
 30
0.0
 11
-738.53262945094957
 21
-148.38486233137215
 31
0.0
  0
ARC
  5
1F3
100
AcDbEntity
  8
LAYER032
  6
CONTINUOUS
 62
             150
100
AcDbCircle
 10
-733.4637183641953
 20
-147.21239716932578
 30
0.0
 40
1.5477428370198298
100
AcDbArc
 50
229.24712957232703
 51
310.75287042767167
  0
ARC
  5
1F4
100
AcDbEntity
  8
LAYER032
  6
CONTINUOUS
 62
             150
100
AcDbCircle
 10
-739.5429924220316
 20
-147.21239716932556
 30
0.0
 40
1.5477428370198298
100
AcDbArc
 50
229.24712957232703
 51
310.75287042767167
  0
ARC
  5
1F5
100
AcDbEntity
  8
LAYER032
  6
CONTINUOUS
 62
             150
100
AcDbCircle
 10
-736.50335539311345
 20
-143.08595950061172
 30
0.0
 40
5.6741805057339203
100
AcDbArc
 50
249.0451000818401
 51
290.95489991815862
  0
LINE
  5
1F6
100
AcDbEntity
  8
LAYER032
  6
CONTINUOUS
 62
             150
100
AcDbLine
 10
-740.30335539311363
 20
-144.96014000634537
 30
0.0
 11
-740.30335539311363
 21
-145.96014000634537
 31
0.0
  0
LINE
  5
1F7
100
AcDbEntity
  8
LAYER032
  6
CONTINUOUS
 62
             150
100
AcDbLine
 10
-732.70335539311327
 20
-144.9601400063456
 30
0.0
 11
-732.70335539311327
 21
-145.9601400063456
 31
0.0
  0
ENDBLK
  5
1F8
100
AcDbEntity
  8
0
100
AcDbBlockEnd
  0
BLOCK
  5
1F9
100
AcDbEntity
  8
0
100
AcDbBlockBegin
  2
GROUP_15
 70
               0
 10
0.0
 20
0.0
 30
0.0
  3
GROUP_15
  1

  0
LINE
  5
1FA
100
AcDbEntity
  8
LAYER032
  6
CONTINUOUS
 62
             150
100
AcDbLine
 10
-733.00335539311345
 20
-164.4613906359192
 30
0.0
 11
-740.00335539311345
 21
-164.46139063591897
 31
0.0
  0
LINE
  5
1FB
100
AcDbEntity
  8
LAYER032
  6
CONTINUOUS
 62
             150
100
AcDbLine
 10
-733.00335539311345
 20
-164.4613906359192
 30
0.0
 11
-733.07139213622941
 21
-165.75960903110024
 31
0.0
  0
LINE
  5
1FC
100
AcDbEntity
  8
LAYER032
  6
CONTINUOUS
 62
             150
100
AcDbLine
 10
-740.00335539311345
 20
-164.46139063591897
 30
0.0
 11
-739.9353186499975
 21
-165.75960903110001
 31
0.0
  0
ARC
  5
1FD
100
AcDbEntity
  8
LAYER032
  6
CONTINUOUS
 62
             150
100
AcDbCircle
 10
-734.03344334321991
 20
-165.70919006378529
 30
0.0
 40
0.9633714741142343
100
AcDbArc
 50
288.84896882759108
 51
356.99999999999915
  0
ARC
  5
1FE
100
AcDbEntity
  8
LAYER032
  6
CONTINUOUS
 62
             150
100
AcDbCircle
 10
-738.97326744300699
 20
-165.70919006378506
 30
0.0
 40
0.9633714741142343
100
AcDbArc
 50
182.99999999999955
 51
251.15103117240761
  0
ARC
  5
1FF
100
AcDbEntity
  8
LAYER032
  6
CONTINUOUS
 62
             150
100
AcDbCircle
 10
-736.50335539311345
 20
-158.06139063591934
 30
0.0
 40
9.0
100
AcDbArc
 50
251.99999999999937
 51
287.99999999999932
  0
LINE
  5
200
100
AcDbEntity
  8
LAYER032
  6
CONTINUOUS
 62
             150
100
AcDbLine
 10
-738.50335539311345
 20
-164.46139063591897
 30
0.0
 11
-738.50335539311345
 21
-148.76014000634538
 31
0.0
  0
LINE
  5
201
100
AcDbEntity
  8
LAYER032
  6
CONTINUOUS
 62
             150
100
AcDbLine
 10
-738.50335539311345
 20
-138.13041852473225
 30
0.0
 11
-738.50335539311345
 21
-134.46139063591914
 31
0.0
  0
LINE
  5
202
100
AcDbEntity
  8
LAYER032
  6
CONTINUOUS
 62
             150
100
AcDbLine
 10
-734.50335539311345
 20
-164.4613906359192
 30
0.0
 11
-734.50335539311345
 21
-148.76014000634552
 31
0.0
  0
LINE
  5
203
100
AcDbEntity
  8
LAYER032
  6
CONTINUOUS
 62
             150
100
AcDbLine
 10
-734.50335539311345
 20
-138.13041852473248
 30
0.0
 11
-734.50335539311345
 21
-134.46139063591914
 31
0.0
  0
ENDBLK
  5
204
100
AcDbEntity
  8
0
100
AcDbBlockEnd
  0
BLOCK
  5
205
100
AcDbEntity
  8
0
100
AcDbBlockBegin
  2
GROUP_16
 70
               0
 10
0.0
 20
0.0
 30
0.0
  3
GROUP_16
  1

  0
LINE
  5
206
100
AcDbEntity
  8
0
  6
CONTINUOUS
 62
               3
100
AcDbLine
 10
718.30170354081383
 20
-697.46139063591932
 30
0.0
 11
718.30170354081383
 21
-706.84480988218831
 31
0.0
  0
LINE
  5
207
100
AcDbEntity
  8
0
  6
CONTINUOUS
 62
               3
100
AcDbLine
 10
713.97157652189162
 20
-708.4613906359192
 30
0.0
 11
688.03183055973568
 21
-708.4613906359192
 31
0.0
  0
LINE
  5
208
100
AcDbEntity
  8
0
  6
CONTINUOUS
 62
               3
100
AcDbLine
 10
683.70170354081347
 20
-697.46139063591932
 30
0.0
 11
683.70170354081347
 21
-706.84480988218831
 31
0.0
  0
LINE
  5
209
100
AcDbEntity
  8
0
  6
CONTINUOUS
 62
               3
100
AcDbLine
 10
692.36195757865789
 20
-697.46139063591932
 30
0.0
 11
692.36195757865789
 21
-706.84480988218831
 31
0.0
  0
ARC
  5
20A
100
AcDbEntity
  8
0
  6
CONTINUOUS
 62
               3
100
AcDbCircle
 10
713.97157652189162
 20
-701.85382300156868
 30
0.0
 40
6.6075676343505885
100
AcDbArc
 50
229.05544096051565
 51
310.94455903948312
  0
ARC
  5
20B
100
AcDbEntity
  8
0
  6
CONTINUOUS
 62
               3
100
AcDbCircle
 10
688.03183055973568
 20
-701.85382300156868
 30
0.0
 40
6.6075676343505885
100
AcDbArc
 50
229.05544096051565
 51
310.94455903948312
  0
ARC
  5
20C
100
AcDbEntity
  8
0
  6
CONTINUOUS
 62
               3
100
AcDbCircle
 10
701.00170354081365
 20
-684.5657258367404
 30
0.0
 40
23.895664799178892
100
AcDbArc
 50
248.80389248660356
 51
291.19610751339525
  0
ENDBLK
  5
20D
100
AcDbEntity
  8
0
100
AcDbBlockEnd
  0
BLOCK
  5
20E
100
AcDbEntity
  8
0
100
AcDbBlockBegin
  2
GROUP_17
 70
               0
 10
0.0
 20
0.0
 30
0.0
  3
GROUP_17
  1

  0
LINE
  5
20F
100
AcDbEntity
  8
0
  6
CONTINUOUS
 62
               3
100
AcDbLine
 10
691.00170354081365
 20
-748.46139063591909
 30
0.0
 11
691.00170354081365
 21
-708.4613906359192
 31
0.0
  0
LINE
  5
210
100
AcDbEntity
  8
0
  6
CONTINUOUS
 62
               3
100
AcDbLine
 10
711.00170354081365
 20
-748.46139063591909
 30
0.0
 11
711.00170354081365
 21
-708.4613906359192
 31
0.0
  0
ENDBLK
  5
211
100
AcDbEntity
  8
0
100
AcDbBlockEnd
  0
BLOCK
  5
212
100
AcDbEntity
  8
0
100
AcDbBlockBegin
  2
GROUP_18
 70
               0
 10
0.0
 20
0.0
 30
0.0
  3
GROUP_18
  1

  0
LINE
  5
213
100
AcDbEntity
  8
0
  6
CONTINUOUS
 62
               3
100
AcDbLine
 10
1293.7017035408135
 20
-697.46139063591932
 30
0.0
 11
1293.7017035408135
 21
-706.84480988218831
 31
0.0
  0
LINE
  5
214
100
AcDbEntity
  8
0
  6
CONTINUOUS
 62
               3
100
AcDbLine
 10
1298.0318305597357
 20
-708.4613906359192
 30
0.0
 11
1323.9715765218916
 21
-708.4613906359192
 31
0.0
  0
LINE
  5
215
100
AcDbEntity
  8
0
  6
CONTINUOUS
 62
               3
100
AcDbLine
 10
1328.3017035408138
 20
-697.46139063591932
 30
0.0
 11
1328.3017035408138
 21
-706.84480988218831
 31
0.0
  0
LINE
  5
216
100
AcDbEntity
  8
0
  6
CONTINUOUS
 62
               3
100
AcDbLine
 10
1319.6414495029694
 20
-697.46139063591932
 30
0.0
 11
1319.6414495029694
 21
-706.84480988218831
 31
0.0
  0
ARC
  5
217
100
AcDbEntity
  8
0
  6
CONTINUOUS
 62
               3
100
AcDbCircle
 10
1298.0318305597357
 20
-701.85382300156868
 30
0.0
 40
6.6075676343505885
100
AcDbArc
 50
229.05544096051565
 51
310.94455903948312
  0
ARC
  5
218
100
AcDbEntity
  8
0
  6
CONTINUOUS
 62
               3
100
AcDbCircle
 10
1323.9715765218916
 20
-701.85382300156868
 30
0.0
 40
6.6075676343505885
100
AcDbArc
 50
229.05544096051565
 51
310.94455903948312
  0
ARC
  5
219
100
AcDbEntity
  8
0
  6
CONTINUOUS
 62
               3
100
AcDbCircle
 10
1311.0017035408137
 20
-684.5657258367404
 30
0.0
 40
23.895664799178892
100
AcDbArc
 50
248.80389248660356
 51
291.19610751339525
  0
ENDBLK
  5
21A
100
AcDbEntity
  8
0
100
AcDbBlockEnd
  0
BLOCK
  5
21B
100
AcDbEntity
  8
0
100
AcDbBlockBegin
  2
GROUP_19
 70
               0
 10
0.0
 20
0.0
 30
0.0
  3
GROUP_19
  1

  0
LINE
  5
21C
100
AcDbEntity
  8
0
  6
CONTINUOUS
 62
               3
100
AcDbLine
 10
1321.0017035408137
 20
-748.46139063591909
 30
0.0
 11
1321.0017035408137
 21
-708.4613906359192
 31
0.0
  0
LINE
  5
21D
100
AcDbEntity
  8
0
  6
CONTINUOUS
 62
               3
100
AcDbLine
 10
1301.0017035408137
 20
-748.46139063591909
 30
0.0
 11
1301.0017035408137
 21
-708.4613906359192
 31
0.0
  0
ENDBLK
  5
21E
100
AcDbEntity
  8
0
100
AcDbBlockEnd
  0
BLOCK
  5
21F
100
AcDbEntity
  8
0
100
AcDbBlockBegin
  2
GROUP_20
 70
               0
 10
0.0
 20
0.0
 30
0.0
  3
GROUP_20
  1

  0
LINE
  5
220
100
AcDbEntity
  8
LAYER064
  6
CONTINUOUS
 62
               9
100
AcDbLine
 10
-1118.9982964591863
 20
-707.46139063591909
 30
0.0
 11
-1118.9982964591863
 21
-987.46139063591909
 31
0.0
  0
LINE
  5
221
100
AcDbEntity
  8
LAYER064
  6
CONTINUOUS
 62
               9
100
AcDbLine
 10
-358.99829645918635
 20
-707.46139063591909
 30
0.0
 11
-358.99829645918635
 21
-987.46139063591909
 31
0.0
  0
LINE
  5
222
100
AcDbEntity
  8
LAYER064
  6
CONTINUOUS
 62
               9
100
AcDbLine
 10
-1118.9982964591863
 20
-977.46139063591909
 30
0.0
 11
-358.99829645918635
 21
-977.46139063591909
 31
0.0
  0
LINE
  5
223
100
AcDbEntity
  8
LAYER064
  6
CONTINUOUS
 62
               9
100
AcDbLine
 10
-1118.9982964591863
 20
-977.46139063591909
 30
0.0
 11
-1094.1352490749796
 21
-974.84817905422778
 31
0.0
  0
LINE
  5
224
100
AcDbEntity
  8
LAYER064
  6
CONTINUOUS
 62
               9
100
AcDbLine
 10
-1118.9982964591863
 20
-977.46139063591909
 30
0.0
 11
-1094.1352490749796
 21
-980.07460221761039
 31
0.0
  0
LINE
  5
225
100
AcDbEntity
  8
LAYER064
  6
CONTINUOUS
 62
               9
100
AcDbLine
 10
-358.99829645918635
 20
-977.46139063591909
 30
0.0
 11
-383.86134407453949
 21
-980.07460001839945
 31
0.0
  0
LINE
  5
226
100
AcDbEntity
  8
LAYER064
  6
CONTINUOUS
 62
               9
100
AcDbLine
 10
-358.99829645918635
 20
-977.46139063591909
 30
0.0
 11
-383.86134407453949
 21
-974.84818125343872
 31
0.0
  0
TEXT
  5
227
100
AcDbEntity
  8
LAYER064
 62
               7
100
AcDbText
 10
-791.49829645918635
 20
-967.46139063591909
 30
0.0
 40
35.0
  1
760
 72
               5
 11
-686.49829645918635
 21
-967.46139063591909
 31
0.0
100
AcDbText
  0
ENDBLK
  5
228
100
AcDbEntity
  8
0
100
AcDbBlockEnd
  0
BLOCK
  5
229
100
AcDbEntity
  8
0
100
AcDbBlockBegin
  2
GROUP_21
 70
               0
 10
0.0
 20
0.0
 30
0.0
  3
GROUP_21
  1

  0
LINE
  5
22A
100
AcDbEntity
  8
LAYER064
  6
CONTINUOUS
 62
               9
100
AcDbLine
 10
751.00170354081365
 20
-707.46139063591932
 30
0.0
 11
751.00170354081365
 21
-887.46139063591909
 31
0.0
  0
LINE
  5
22B
100
AcDbEntity
  8
LAYER064
  6
CONTINUOUS
 62
               9
100
AcDbLine
 10
1261.0017035408137
 20
-707.46139063591932
 30
0.0
 11
1261.0017035408137
 21
-887.46139063591909
 31
0.0
  0
LINE
  5
22C
100
AcDbEntity
  8
LAYER064
  6
CONTINUOUS
 62
               9
100
AcDbLine
 10
751.00170354081365
 20
-877.46139063591909
 30
0.0
 11
1261.0017035408137
 21
-877.46139063591909
 31
0.0
  0
LINE
  5
22D
100
AcDbEntity
  8
LAYER064
  6
CONTINUOUS
 62
               9
100
AcDbLine
 10
751.00170354081365
 20
-877.46139063591909
 30
0.0
 11
775.86475092502053
 21
-874.84817905422778
 31
0.0
  0
LINE
  5
22E
100
AcDbEntity
  8
LAYER064
  6
CONTINUOUS
 62
               9
100
AcDbLine
 10
751.00170354081365
 20
-877.46139063591909
 30
0.0
 11
775.86475092502053
 21
-880.07460221761039
 31
0.0
  0
LINE
  5
22F
100
AcDbEntity
  8
LAYER064
  6
CONTINUOUS
 62
               9
100
AcDbLine
 10
1261.0017035408137
 20
-877.46139063591909
 30
0.0
 11
1236.1386559254606
 21
-880.07460001839945
 31
0.0
  0
LINE
  5
230
100
AcDbEntity
  8
LAYER064
  6
CONTINUOUS
 62
               9
100
AcDbLine
 10
1261.0017035408137
 20
-877.46139063591909
 30
0.0
 11
1236.1386559254606
 21
-874.84818125343872
 31
0.0
  0
TEXT
  5
231
100
AcDbEntity
  8
LAYER064
 62
               7
100
AcDbText
 10
953.50170354081365
 20
-867.46139063591909
 30
0.0
 40
35.0
  1
510
 72
               5
 11
1058.5017035408137
 21
-867.46139063591909
 31
0.0
100
AcDbText
  0
ENDBLK
  5
232
100
AcDbEntity
  8
0
100
AcDbBlockEnd
  0
BLOCK
  5
233
100
AcDbEntity
  8
0
100
AcDbBlockBegin
  2
GROUP_22
 70
               0
 10
0.0
 20
0.0
 30
0.0
  3
GROUP_22
  1

  0
LINE
  5
234
100
AcDbEntity
  8
LAYER064
  6
CONTINUOUS
 62
               9
100
AcDbLine
 10
701.00170354081365
 20
-787.46139063591909
 30
0.0
 11
701.00170354081365
 21
-987.46139063591909
 31
0.0
  0
LINE
  5
235
100
AcDbEntity
  8
LAYER064
  6
CONTINUOUS
 62
               9
100
AcDbLine
 10
1311.0017035408137
 20
-787.46139063591909
 30
0.0
 11
1311.0017035408137
 21
-987.46139063591909
 31
0.0
  0
LINE
  5
236
100
AcDbEntity
  8
LAYER064
  6
CONTINUOUS
 62
               9
100
AcDbLine
 10
701.00170354081365
 20
-977.46139063591909
 30
0.0
 11
1311.0017035408137
 21
-977.46139063591909
 31
0.0
  0
LINE
  5
237
100
AcDbEntity
  8
LAYER064
  6
CONTINUOUS
 62
               9
100
AcDbLine
 10
701.00170354081365
 20
-977.46139063591909
 30
0.0
 11
725.86475092502053
 21
-974.84817905422778
 31
0.0
  0
LINE
  5
238
100
AcDbEntity
  8
LAYER064
  6
CONTINUOUS
 62
               9
100
AcDbLine
 10
701.00170354081365
 20
-977.46139063591909
 30
0.0
 11
725.86475092502053
 21
-980.07460221761039
 31
0.0
  0
LINE
  5
239
100
AcDbEntity
  8
LAYER064
  6
CONTINUOUS
 62
               9
100
AcDbLine
 10
1311.0017035408137
 20
-977.46139063591909
 30
0.0
 11
1286.1386559254606
 21
-980.07460001839945
 31
0.0
  0
LINE
  5
23A
100
AcDbEntity
  8
LAYER064
  6
CONTINUOUS
 62
               9
100
AcDbLine
 10
1311.0017035408137
 20
-977.46139063591909
 30
0.0
 11
1286.1386559254606
 21
-974.84818125343872
 31
0.0
  0
TEXT
  5
23B
100
AcDbEntity
  8
LAYER064
 62
               7
100
AcDbText
 10
953.50170354081365
 20
-967.46139063591909
 30
0.0
 40
35.0
  1
610
 72
               5
 11
1058.5017035408137
 21
-967.46139063591909
 31
0.0
100
AcDbText
  0
ENDBLK
  5
23C
100
AcDbEntity
  8
0
100
AcDbBlockEnd
  0
BLOCK
  5
23D
100
AcDbEntity
  8
0
100
AcDbBlockBegin
  2
GROUP_23
 70
               0
 10
0.0
 20
0.0
 30
0.0
  3
GROUP_23
  1

  0
LINE
  5
23E
100
AcDbEntity
  8
LAYER064
  6
CONTINUOUS
 62
               9
100
AcDbLine
 10
-261.49829645918635
 20
-677.46139063591932
 30
0.0
 11
-90.998296459186349
 21
-677.46139063591932
 31
0.0
  0
LINE
  5
23F
100
AcDbEntity
  8
LAYER064
  6
CONTINUOUS
 62
               9
100
AcDbLine
 10
-248.99829645918635
 20
-697.46139063591932
 30
0.0
 11
-90.998296459186349
 21
-697.46139063591932
 31
0.0
  0
LINE
  5
240
100
AcDbEntity
  8
LAYER064
  6
CONTINUOUS
 62
               9
100
AcDbLine
 10
-100.99829645918635
 20
-697.46139063591932
 30
0.0
 11
-100.99829645918635
 21
-677.46139063591932
 31
0.0
  0
LINE
  5
241
100
AcDbEntity
  8
LAYER064
  6
CONTINUOUS
 62
               9
100
AcDbLine
 10
-261.49829645918635
 20
-602.46139063591932
 30
0.0
 11
-90.998296459186349
 21
-602.46139063591932
 31
0.0
  0
LINE
  5
242
100
AcDbEntity
  8
LAYER064
  6
CONTINUOUS
 62
               9
100
AcDbLine
 10
-261.49829645918635
 20
-295.4613906359192
 30
0.0
 11
-90.998296459186349
 21
-295.4613906359192
 31
0.0
  0
LINE
  5
243
100
AcDbEntity
  8
LAYER064
  6
CONTINUOUS
 62
               9
100
AcDbLine
 10
-261.49829645918635
 20
-220.4613906359192
 30
0.0
 11
-90.998296459186349
 21
-220.4613906359192
 31
0.0
  0
LINE
  5
244
100
AcDbEntity
  8
LAYER064
  6
CONTINUOUS
 62
               9
100
AcDbLine
 10
-196.99829645918635
 20
-190.46139063591923
 30
0.0
 11
-90.998296459186349
 21
-190.46139063591923
 31
0.0
  0
LINE
  5
245
100
AcDbEntity
  8
LAYER064
  6
CONTINUOUS
 62
               9
100
AcDbLine
 10
-100.99829645918635
 20
-220.4613906359192
 30
0.0
 11
-100.99829645918635
 21
-190.46139063591923
 31
0.0
  0
LINE
  5
246
100
AcDbEntity
  8
LAYER064
  6
CONTINUOUS
 62
               9
100
AcDbLine
 10
-100.99829645918635
 20
-817.46139063591932
 30
0.0
 11
-100.99829645918635
 21
-697.46139063591932
 31
0.0
  0
LINE
  5
247
100
AcDbEntity
  8
LAYER064
  6
CONTINUOUS
 62
               9
100
AcDbLine
 10
-100.99829645918635
 20
-697.46139063591932
 30
0.0
 11
-98.385087076705986
 21
-722.32443825127245
 31
0.0
  0
LINE
  5
248
100
AcDbEntity
  8
LAYER064
  6
CONTINUOUS
 62
               9
100
AcDbLine
 10
-100.99829645918635
 20
-697.46139063591932
 30
0.0
 11
-103.61150584166671
 21
-722.32443825127245
 31
0.0
  0
LINE
  5
249
100
AcDbEntity
  8
LAYER064
  6
CONTINUOUS
 62
               9
100
AcDbLine
 10
-100.99829645918635
 20
-70.46139063591923
 30
0.0
 11
-100.99829645918635
 21
-190.46139063591923
 31
0.0
  0
LINE
  5
24A
100
AcDbEntity
  8
LAYER064
  6
CONTINUOUS
 62
               9
100
AcDbLine
 10
-100.99829645918635
 20
-190.46139063591923
 30
0.0
 11
-103.61150584166671
 21
-165.59834302056612
 31
0.0
  0
LINE
  5
24B
100
AcDbEntity
  8
LAYER064
  6
CONTINUOUS
 62
               9
100
AcDbLine
 10
-100.99829645918635
 20
-190.46139063591923
 30
0.0
 11
-98.385087076705972
 21
-165.59834302056612
 31
0.0
  0
LINE
  5
24C
100
AcDbEntity
  8
LAYER064
  6
CONTINUOUS
 62
               9
100
AcDbLine
 10
-100.99829645918635
 20
-677.46139063591932
 30
0.0
 11
-100.99829645918635
 21
-602.46139063591932
 31
0.0
  0
INSERT
  5
24D
100
AcDbEntity
  8
LAYER064
  6
CONTINUOUS
 62
               9
100
AcDbBlockReference
  2
_DOT
 10
-100.99829645918635
 20
-677.46139063591932
 30
0.0
 41
3.0
 42
3.0
 43
3.0
  0
LINE
  5
24E
100
AcDbEntity
  8
LAYER064
  6
CONTINUOUS
 62
               9
100
AcDbLine
 10
-100.99829645918635
 20
-602.46139063591932
 30
0.0
 11
-100.99829645918635
 21
-295.4613906359192
 31
0.0
  0
LINE
  5
24F
100
AcDbEntity
  8
LAYER064
  6
CONTINUOUS
 62
               9
100
AcDbLine
 10
-100.99829645918635
 20
-602.46139063591932
 30
0.0
 11
-103.61150804087769
 21
-577.59834325171244
 31
0.0
  0
LINE
  5
250
100
AcDbEntity
  8
LAYER064
  6
CONTINUOUS
 62
               9
100
AcDbLine
 10
-100.99829645918635
 20
-602.46139063591932
 30
0.0
 11
-98.385084877495018
 21
-577.59834325171244
 31
0.0
  0
LINE
  5
251
100
AcDbEntity
  8
LAYER064
  6
CONTINUOUS
 62
               9
100
AcDbLine
 10
-100.99829645918635
 20
-295.4613906359192
 30
0.0
 11
-98.385087076705986
 21
-320.32443825127234
 31
0.0
  0
LINE
  5
252
100
AcDbEntity
  8
LAYER064
  6
CONTINUOUS
 62
               9
100
AcDbLine
 10
-100.99829645918635
 20
-295.4613906359192
 30
0.0
 11
-103.61150584166671
 21
-320.32443825127234
 31
0.0
  0
LINE
  5
253
100
AcDbEntity
  8
LAYER064
  6
CONTINUOUS
 62
               9
100
AcDbLine
 10
-100.99829645918635
 20
-295.4613906359192
 30
0.0
 11
-100.99829645918635
 21
-220.4613906359192
 31
0.0
  0
INSERT
  5
254
100
AcDbEntity
  8
LAYER064
  6
CONTINUOUS
 62
               9
100
AcDbBlockReference
  2
_DOT
 10
-100.99829645918635
 20
-220.4613906359192
 30
0.0
 41
3.0
 42
3.0
 43
3.0
  0
TEXT
  5
255
100
AcDbEntity
  8
LAYER064
 62
               7
100
AcDbText
 10
-110.99829645918635
 20
-807.46139063591932
 30
0.0
 40
35.0
  1
20
 50
89.999999999999801
 72
               5
 11
-110.99829645918635
 21
-737.46139063591932
 31
0.0
100
AcDbText
  0
TEXT
  5
256
100
AcDbEntity
  8
LAYER064
 62
               7
100
AcDbText
 10
-110.99829645918635
 20
-674.96139063591932
 30
0.0
 40
35.0
  1
75
 50
89.999999999999801
 72
               5
 11
-110.99829645918635
 21
-604.96139063591932
 31
0.0
100
AcDbText
  0
TEXT
  5
257
100
AcDbEntity
  8
LAYER064
 62
               7
100
AcDbText
 10
-110.99829645918635
 20
-501.46139063591926
 30
0.0
 40
35.0
  1
307
 50
89.999999999999801
 72
               5
 11
-110.99829645918635
 21
-396.46139063591926
 31
0.0
100
AcDbText
  0
TEXT
  5
258
100
AcDbEntity
  8
LAYER064
 62
               7
100
AcDbText
 10
-110.99829645918635
 20
-292.9613906359192
 30
0.0
 40
35.0
  1
75
 50
89.999999999999801
 72
               5
 11
-110.99829645918635
 21
-222.9613906359192
 31
0.0
100
AcDbText
  0
TEXT
  5
259
100
AcDbEntity
  8
LAYER064
 62
               7
100
AcDbText
 10
-110.99829645918635
 20
-150.46139063591923
 30
0.0
 40
35.0
  1
30
 50
89.999999999999801
 72
               5
 11
-110.99829645918635
 21
-80.46139063591923
 31
0.0
100
AcDbText
  0
ENDBLK
  5
25A
100
AcDbEntity
  8
0
100
AcDbBlockEnd
  0
BLOCK
  5
25B
100
AcDbEntity
  8
0
100
AcDbBlockBegin
  2
_ORIGIN
 70
               0
 10
0.0
 20
0.0
 30
0.0
  3
_ORIGIN
  1

  0
CIRCLE
  5
25C
100
AcDbEntity
  8
LAYER064
  6
CONTINUOUS
 62
               9
100
AcDbCircle
 10
0.0
 20
0.0
 30
0.0
 40
0.5
  0
ENDBLK
  5
25D
100
AcDbEntity
  8
0
100
AcDbBlockEnd
  0
BLOCK
  5
25E
100
AcDbEntity
  8
0
100
AcDbBlockBegin
  2
_DOT
 70
               0
 10
0.0
 20
0.0
 30
0.0
  3
_DOT
  1

  0
HATCH
  5
25F
100
AcDbEntity
  8
LAYER064
  6
CONTINUOUS
 62
               9
100
AcDbHatch
 10
0.0
 20
0.0
 30
0.0
210
0.0
220
0.0
230
1.0
  2
SOLID
 70
               1
 71
               1
 91
        1
 92
        1
 93
        1
 72
               2
 10
0.0
 20
0.0
 40
0.5
 50
0.0
 51
359.9999999999992
 73
               1
 97
        0
 75
               0
 76
               1
 98
        0
  0
ENDBLK
  5
260
100
AcDbEntity
  8
0
100
AcDbBlockEnd
  0
BLOCK
  5
261
100
AcDbEntity
  8
0
100
AcDbBlockBegin
  2
GROUP_24
 70
               0
 10
0.0
 20
0.0
 30
0.0
  3
GROUP_24
  1

  0
LINE
  5
262
100
AcDbEntity
  8
LAYER064
  6
CONTINUOUS
 62
               9
100
AcDbLine
 10
-268.99829645918635
 20
-777.46139063591909
 30
0.0
 11
9.0017035408136508
 21
-777.46139063591909
 31
0.0
  0
LINE
  5
263
100
AcDbEntity
  8
LAYER064
  6
CONTINUOUS
 62
               9
100
AcDbLine
 10
-248.99829645918635
 20
-697.46139063591932
 30
0.0
 11
9.0017035408136508
 21
-697.46139063591932
 31
0.0
  0
LINE
  5
264
100
AcDbEntity
  8
LAYER064
  6
CONTINUOUS
 62
               9
100
AcDbLine
 10
-196.99829645918635
 20
-190.46139063591923
 30
0.0
 11
9.0017035408136508
 21
-190.46139063591923
 31
0.0
  0
LINE
  5
265
100
AcDbEntity
  8
LAYER064
  6
CONTINUOUS
 62
               9
100
AcDbLine
 10
-0.9982964591863492
 20
-777.46139063591909
 30
0.0
 11
-0.9982964591863492
 21
-697.46139063591932
 31
0.0
  0
LINE
  5
266
100
AcDbEntity
  8
LAYER064
  6
CONTINUOUS
 62
               9
100
AcDbLine
 10
-0.9982964591863492
 20
-777.46139063591909
 30
0.0
 11
-3.6115080408776881
 21
-752.59834325171221
 31
0.0
  0
LINE
  5
267
100
AcDbEntity
  8
LAYER064
  6
CONTINUOUS
 62
               9
100
AcDbLine
 10
-0.9982964591863492
 20
-777.46139063591909
 30
0.0
 11
1.6149151225049869
 21
-752.59834325171221
 31
0.0
  0
LINE
  5
268
100
AcDbEntity
  8
LAYER064
  6
CONTINUOUS
 62
               9
100
AcDbLine
 10
-0.9982964591863492
 20
-697.46139063591932
 30
0.0
 11
1.6149129232940167
 21
-722.32443825127245
 31
0.0
  0
LINE
  5
269
100
AcDbEntity
  8
LAYER064
  6
CONTINUOUS
 62
               9
100
AcDbLine
 10
-0.9982964591863492
 20
-697.46139063591932
 30
0.0
 11
-3.6115058416667178
 21
-722.32443825127245
 31
0.0
  0
LINE
  5
26A
100
AcDbEntity
  8
LAYER064
  6
CONTINUOUS
 62
               9
100
AcDbLine
 10
-0.9982964591863492
 20
-697.46139063591932
 30
0.0
 11
-0.9982964591863492
 21
-190.46139063591923
 31
0.0
  0
LINE
  5
26B
100
AcDbEntity
  8
LAYER064
  6
CONTINUOUS
 62
               9
100
AcDbLine
 10
-0.9982964591863492
 20
-697.46139063591932
 30
0.0
 11
-3.6115080408776881
 21
-672.59834325171244
 31
0.0
  0
LINE
  5
26C
100
AcDbEntity
  8
LAYER064
  6
CONTINUOUS
 62
               9
100
AcDbLine
 10
-0.9982964591863492
 20
-697.46139063591932
 30
0.0
 11
1.6149151225049869
 21
-672.59834325171244
 31
0.0
  0
LINE
  5
26D
100
AcDbEntity
  8
LAYER064
  6
CONTINUOUS
 62
               9
100
AcDbLine
 10
-0.9982964591863492
 20
-190.46139063591923
 30
0.0
 11
1.6149129232940167
 21
-215.32443825127234
 31
0.0
  0
LINE
  5
26E
100
AcDbEntity
  8
LAYER064
  6
CONTINUOUS
 62
               9
100
AcDbLine
 10
-0.9982964591863492
 20
-190.46139063591923
 30
0.0
 11
-3.6115058416667178
 21
-215.32443825127234
 31
0.0
  0
TEXT
  5
26F
100
AcDbEntity
  8
LAYER064
 62
               7
100
AcDbText
 10
-10.998296459186349
 20
-772.4613906359192
 30
0.0
 40
35.0
  1
80
 50
89.999999999999801
 72
               5
 11
-10.998296459186347
 21
-702.4613906359192
 31
0.0
100
AcDbText
  0
TEXT
  5
270
100
AcDbEntity
  8
LAYER064
 62
               7
100
AcDbText
 10
-10.998296459186349
 20
-496.46139063591926
 30
0.0
 40
35.0
  1
507
 50
89.999999999999801
 72
               5
 11
-10.998296459186346
 21
-391.46139063591926
 31
0.0
100
AcDbText
  0
ENDBLK
  5
271
100
AcDbEntity
  8
0
100
AcDbBlockEnd
  0
BLOCK
  5
272
100
AcDbEntity
  8
0
100
AcDbBlockBegin
  2
GROUP_25
 70
               0
 10
0.0
 20
0.0
 30
0.0
  3
GROUP_25
  1

  0
LINE
  5
273
100
AcDbEntity
  8
LAYER064
  6
CONTINUOUS
 62
               9
100
AcDbLine
 10
-268.99829645918635
 20
-777.46139063591909
 30
0.0
 11
109.00170354081365
 21
-777.46139063591909
 31
0.0
  0
LINE
  5
274
100
AcDbEntity
  8
LAYER064
  6
CONTINUOUS
 62
               9
100
AcDbLine
 10
-228.99829645918635
 20
-57.461390635919088
 30
0.0
 11
109.00170354081365
 21
-57.461390635919088
 31
0.0
  0
LINE
  5
275
100
AcDbEntity
  8
LAYER064
  6
CONTINUOUS
 62
               9
100
AcDbLine
 10
99.001703540813651
 20
-777.46139063591909
 30
0.0
 11
99.001703540813651
 21
-57.461390635919088
 31
0.0
  0
LINE
  5
276
100
AcDbEntity
  8
LAYER064
  6
CONTINUOUS
 62
               9
100
AcDbLine
 10
99.001703540813651
 20
-777.46139063591909
 30
0.0
 11
96.388491959122305
 21
-752.59834325171221
 31
0.0
  0
LINE
  5
277
100
AcDbEntity
  8
LAYER064
  6
CONTINUOUS
 62
               9
100
AcDbLine
 10
99.001703540813651
 20
-777.46139063591909
 30
0.0
 11
101.61491512250498
 21
-752.59834325171221
 31
0.0
  0
LINE
  5
278
100
AcDbEntity
  8
LAYER064
  6
CONTINUOUS
 62
               9
100
AcDbLine
 10
99.001703540813651
 20
-57.461390635919088
 30
0.0
 11
101.61491292329401
 21
-82.324438251272213
 31
0.0
  0
LINE
  5
279
100
AcDbEntity
  8
LAYER064
  6
CONTINUOUS
 62
               9
100
AcDbLine
 10
99.001703540813651
 20
-57.461390635919088
 30
0.0
 11
96.388494158333287
 21
-82.324438251272213
 31
0.0
  0
TEXT
  5
27A
100
AcDbEntity
  8
LAYER064
 62
               7
100
AcDbText
 10
89.001703540813651
 20
-469.96139063591909
 30
0.0
 40
35.0
  1
720
 50
89.999999999999801
 72
               5
 11
89.001703540813651
 21
-364.96139063591909
 31
0.0
100
AcDbText
  0
ENDBLK
  5
27B
100
AcDbEntity
  8
0
100
AcDbBlockEnd
  0
BLOCK
  5
27C
100
AcDbEntity
  8
0
100
AcDbBlockBegin
  2
GROUP_26
 70
               0
 10
0.0
 20
0.0
 30
0.0
  3
GROUP_26
  1

  0
LINE
  5
27D
100
AcDbEntity
  8
LAYER064
  6
CONTINUOUS
 62
               9
100
AcDbLine
 10
539.00170354081365
 20
-185.96139063591914
 30
0.0
 11
439.00170354081365
 21
-185.96139063591914
 31
0.0
  0
LINE
  5
27E
100
AcDbEntity
  8
LAYER064
  6
CONTINUOUS
 62
               9
100
AcDbLine
 10
661.00170354081365
 20
-777.46139063591909
 30
0.0
 11
439.00170354081365
 21
-777.46139063591909
 31
0.0
  0
LINE
  5
27F
100
AcDbEntity
  8
LAYER064
  6
CONTINUOUS
 62
               9
100
AcDbLine
 10
559.00170354081365
 20
-69.461390635919145
 30
0.0
 11
439.00170354081365
 21
-69.461390635919145
 31
0.0
  0
LINE
  5
280
100
AcDbEntity
  8
LAYER064
  6
CONTINUOUS
 62
               9
100
AcDbLine
 10
449.00170354081365
 20
-185.96139063591914
 30
0.0
 11
449.00170354081365
 21
-69.461390635919145
 31
0.0
  0
LINE
  5
281
100
AcDbEntity
  8
LAYER064
  6
CONTINUOUS
 62
               9
100
AcDbLine
 10
449.00170354081365
 20
-777.46139063591909
 30
0.0
 11
449.00170354081365
 21
-185.96139063591914
 31
0.0
  0
LINE
  5
282
100
AcDbEntity
  8
LAYER064
  6
CONTINUOUS
 62
               9
100
AcDbLine
 10
449.00170354081365
 20
-777.46139063591909
 30
0.0
 11
446.38849195912229
 21
-752.59834325171221
 31
0.0
  0
LINE
  5
283
100
AcDbEntity
  8
LAYER064
  6
CONTINUOUS
 62
               9
100
AcDbLine
 10
449.00170354081365
 20
-777.46139063591909
 30
0.0
 11
451.61491512250501
 21
-752.59834325171221
 31
0.0
  0
LINE
  5
284
100
AcDbEntity
  8
LAYER064
  6
CONTINUOUS
 62
               9
100
AcDbLine
 10
449.00170354081365
 20
-185.96139063591914
 30
0.0
 11
451.61491292329401
 21
-210.82443825127226
 31
0.0
  0
LINE
  5
285
100
AcDbEntity
  8
LAYER064
  6
CONTINUOUS
 62
               9
100
AcDbLine
 10
449.00170354081365
 20
-185.96139063591914
 30
0.0
 11
446.38849415833329
 21
-210.82443825127226
 31
0.0
  0
LINE
  5
286
100
AcDbEntity
  8
LAYER064
  6
CONTINUOUS
 62
               9
100
AcDbLine
 10
449.00170354081365
 20
155.53860936408086
 30
0.0
 11
449.00170354081365
 21
-69.461390635919145
 31
0.0
  0
LINE
  5
287
100
AcDbEntity
  8
LAYER064
  6
CONTINUOUS
 62
               9
100
AcDbLine
 10
449.00170354081365
 20
-69.461390635919145
 30
0.0
 11
446.38849415833329
 21
-44.59834302056602
 31
0.0
  0
LINE
  5
288
100
AcDbEntity
  8
LAYER064
  6
CONTINUOUS
 62
               9
100
AcDbLine
 10
449.00170354081365
 20
-69.461390635919145
 30
0.0
 11
451.61491292329401
 21
-44.59834302056602
 31
0.0
  0
TEXT
  5
289
100
AcDbEntity
  8
LAYER064
 62
               7
100
AcDbText
 10
439.00170354081365
 20
-569.21139063591909
 30
0.0
 40
35.0
  1
591.5
 50
89.999999999999801
 72
               5
 11
439.00170354081365
 21
-394.21139063591909
 31
0.0
100
AcDbText
  0
TEXT
  5
28A
100
AcDbEntity
  8
LAYER064
 62
               7
100
AcDbText
 10
439.00170354081365
 20
-29.461390635919145
 30
0.0
 40
35.0
  1
116.5
 50
89.999999999999801
 72
               5
 11
439.00170354081365
 21
145.53860936408086
 31
0.0
100
AcDbText
  0
ENDBLK
  5
28B
100
AcDbEntity
  8
0
100
AcDbBlockEnd
  0
BLOCK
  5
28C
100
AcDbEntity
  8
0
100
AcDbBlockBegin
  2
GROUP_27
 70
               0
 10
0.0
 20
0.0
 30
0.0
  3
GROUP_27
  1

  0
LINE
  5
28D
100
AcDbEntity
  8
LAYER064
  6
CONTINUOUS
 62
               9
100
AcDbLine
 10
-258.99829645918635
 20
-707.46139063591932
 30
0.0
 11
-258.99829645918635
 21
-887.46139063591909
 31
0.0
  0
LINE
  5
28E
100
AcDbEntity
  8
LAYER064
  6
CONTINUOUS
 62
               9
100
AcDbLine
 10
-358.99829645918635
 20
-707.46139063591909
 30
0.0
 11
-358.99829645918635
 21
-887.46139063591909
 31
0.0
  0
LINE
  5
28F
100
AcDbEntity
  8
LAYER064
  6
CONTINUOUS
 62
               9
100
AcDbLine
 10
-258.99829645918635
 20
-877.46139063591909
 30
0.0
 11
-358.99829645918635
 21
-877.46139063591909
 31
0.0
  0
LINE
  5
290
100
AcDbEntity
  8
LAYER064
  6
CONTINUOUS
 62
               9
100
AcDbLine
 10
-548.99829645918635
 20
-877.46139063591909
 30
0.0
 11
-358.99829645918635
 21
-877.46139063591909
 31
0.0
  0
LINE
  5
291
100
AcDbEntity
  8
LAYER064
  6
CONTINUOUS
 62
               9
100
AcDbLine
 10
-358.99829645918635
 20
-877.46139063591909
 30
0.0
 11
-383.86134407453949
 21
-880.07460001839945
 31
0.0
  0
LINE
  5
292
100
AcDbEntity
  8
LAYER064
  6
CONTINUOUS
 62
               9
100
AcDbLine
 10
-358.99829645918635
 20
-877.46139063591909
 30
0.0
 11
-383.86134407453949
 21
-874.84818125343872
 31
0.0
  0
LINE
  5
293
100
AcDbEntity
  8
LAYER064
  6
CONTINUOUS
 62
               9
100
AcDbLine
 10
-208.99829645918635
 20
-877.46139063591909
 30
0.0
 11
-258.99829645918635
 21
-877.46139063591909
 31
0.0
  0
LINE
  5
294
100
AcDbEntity
  8
LAYER064
  6
CONTINUOUS
 62
               9
100
AcDbLine
 10
-258.99829645918635
 20
-877.46139063591909
 30
0.0
 11
-234.13524884383324
 21
-874.84818125343872
 31
0.0
  0
LINE
  5
295
100
AcDbEntity
  8
LAYER064
  6
CONTINUOUS
 62
               9
100
AcDbLine
 10
-258.99829645918635
 20
-877.46139063591909
 30
0.0
 11
-234.13524884383324
 21
-880.07460001839945
 31
0.0
  0
TEXT
  5
296
100
AcDbEntity
  8
LAYER064
 62
               7
100
AcDbText
 10
-538.99829645918635
 20
-867.46139063591909
 30
0.0
 40
35.0
  1
□100
 72
               5
 11
-398.99829645918635
 21
-867.46139063591909
 31
0.0
100
AcDbText
  0
ENDBLK
  5
297
100
AcDbEntity
  8
0
100
AcDbBlockEnd
  0
BLOCK
  5
298
100
AcDbEntity
  8
0
100
AcDbBlockBegin
  2
GROUP_28
 70
               0
 10
0.0
 20
0.0
 30
0.0
  3
GROUP_28
  1

  0
LINE
  5
299
100
AcDbEntity
  8
LAYER064
  6
CONTINUOUS
 62
               9
100
AcDbLine
 10
-1198.9982964591863
 20
-787.46139063591909
 30
0.0
 11
-1198.9982964591863
 21
-887.46139063591909
 31
0.0
  0
LINE
  5
29A
100
AcDbEntity
  8
LAYER064
  6
CONTINUOUS
 62
               9
100
AcDbLine
 10
-1138.9982964591863
 20
-787.46139063591909
 30
0.0
 11
-1138.9982964591863
 21
-887.46139063591909
 31
0.0
  0
LINE
  5
29B
100
AcDbEntity
  8
LAYER064
  6
CONTINUOUS
 62
               9
100
AcDbLine
 10
-1198.9982964591863
 20
-877.46139063591909
 30
0.0
 11
-1138.9982964591863
 21
-877.46139063591909
 31
0.0
  0
LINE
  5
29C
100
AcDbEntity
  8
LAYER064
  6
CONTINUOUS
 62
               9
100
AcDbLine
 10
-1353.9982964591863
 20
-877.46139063591909
 30
0.0
 11
-1198.9982964591863
 21
-877.46139063591909
 31
0.0
  0
LINE
  5
29D
100
AcDbEntity
  8
LAYER064
  6
CONTINUOUS
 62
               9
100
AcDbLine
 10
-1198.9982964591863
 20
-877.46139063591909
 30
0.0
 11
-1223.8613440745394
 21
-880.07460001839945
 31
0.0
  0
LINE
  5
29E
100
AcDbEntity
  8
LAYER064
  6
CONTINUOUS
 62
               9
100
AcDbLine
 10
-1198.9982964591863
 20
-877.46139063591909
 30
0.0
 11
-1223.8613440745394
 21
-874.84818125343872
 31
0.0
  0
LINE
  5
29F
100
AcDbEntity
  8
LAYER064
  6
CONTINUOUS
 62
               9
100
AcDbLine
 10
-1088.9982964591863
 20
-877.46139063591909
 30
0.0
 11
-1138.9982964591863
 21
-877.46139063591909
 31
0.0
  0
LINE
  5
2A0
100
AcDbEntity
  8
LAYER064
  6
CONTINUOUS
 62
               9
100
AcDbLine
 10
-1138.9982964591863
 20
-877.46139063591909
 30
0.0
 11
-1114.1352488438333
 21
-874.84818125343872
 31
0.0
  0
LINE
  5
2A1
100
AcDbEntity
  8
LAYER064
  6
CONTINUOUS
 62
               9
100
AcDbLine
 10
-1138.9982964591863
 20
-877.46139063591909
 30
0.0
 11
-1114.1352488438333
 21
-880.07460001839945
 31
0.0
  0
TEXT
  5
2A2
100
AcDbEntity
  8
LAYER064
 62
               7
100
AcDbText
 10
-1343.9982964591863
 20
-867.46139063591909
 30
0.0
 40
35.0
  1
φ60
 72
               5
 11
-1238.9982964591863
 21
-867.46139063591909
 31
0.0
100
AcDbText
  0
ENDBLK
  5
2A3
100
AcDbEntity
  8
0
100
AcDbBlockEnd
  0
BLOCK
  5
2A4
100
AcDbEntity
  8
0
100
AcDbBlockBegin
  2
GROUP_29
 70
               0
 10
0.0
 20
0.0
 30
0.0
  3
GROUP_29
  1

  0
LINE
  5
2A5
100
AcDbEntity
  8
LAYER064
  6
CONTINUOUS
 62
               9
100
AcDbLine
 10
-1168.9982964591863
 20
-787.46139063591909
 30
0.0
 11
-1168.9982964591863
 21
-1087.4613906359191
 31
0.0
  0
LINE
  5
2A6
100
AcDbEntity
  8
LAYER064
  6
CONTINUOUS
 62
               9
100
AcDbLine
 10
-308.99829645918635
 20
-787.46139063591909
 30
0.0
 11
-308.99829645918635
 21
-1087.4613906359191
 31
0.0
  0
LINE
  5
2A7
100
AcDbEntity
  8
LAYER064
  6
CONTINUOUS
 62
               9
100
AcDbLine
 10
-1168.9982964591863
 20
-1077.4613906359191
 30
0.0
 11
-308.99829645918635
 21
-1077.4613906359191
 31
0.0
  0
LINE
  5
2A8
100
AcDbEntity
  8
LAYER064
  6
CONTINUOUS
 62
               9
100
AcDbLine
 10
-1168.9982964591863
 20
-1077.4613906359191
 30
0.0
 11
-1144.1352490749796
 21
-1074.8481790542278
 31
0.0
  0
LINE
  5
2A9
100
AcDbEntity
  8
LAYER064
  6
CONTINUOUS
 62
               9
100
AcDbLine
 10
-1168.9982964591863
 20
-1077.4613906359191
 30
0.0
 11
-1144.1352490749796
 21
-1080.0746022176104
 31
0.0
  0
LINE
  5
2AA
100
AcDbEntity
  8
LAYER064
  6
CONTINUOUS
 62
               9
100
AcDbLine
 10
-308.99829645918635
 20
-1077.4613906359191
 30
0.0
 11
-333.86134407453949
 21
-1080.0746000183995
 31
0.0
  0
LINE
  5
2AB
100
AcDbEntity
  8
LAYER064
  6
CONTINUOUS
 62
               9
100
AcDbLine
 10
-308.99829645918635
 20
-1077.4613906359191
 30
0.0
 11
-333.86134407453949
 21
-1074.8481812534387
 31
0.0
  0
TEXT
  5
2AC
100
AcDbEntity
  8
LAYER064
 62
               7
100
AcDbText
 10
-791.49829645918635
 20
-1067.4613906359191
 30
0.0
 40
35.0
  1
860
 72
               5
 11
-686.49829645918635
 21
-1067.4613906359191
 31
0.0
100
AcDbText
  0
ENDBLK
  5
2AD
100
AcDbEntity
  8
0
100
AcDbBlockEnd
  0
BLOCK
  5
2AE
100
AcDbEntity
  8
0
100
AcDbBlockBegin
  2
GROUP_30
 70
               0
 10
0.0
 20
0.0
 30
0.0
  3
GROUP_30
  1

  0
TEXT
  5
2AF
100
AcDbEntity
  8
0
 62
               3
100
AcDbText
 10
754.00172117039631
 20
418.85542168674704
 30
0.0
 40
100.0
  1
Ｍ-1075
 41
0.8
  7
FdaStyle1
 72
               5
 11
1234.0017211703962
 21
418.85542168674704
 31
0.0
100
AcDbText
  0
LINE
  5
2B0
100
AcDbEntity
  8
0
  6
CONTINUOUS
 62
               3
100
AcDbLine
 10
744.00172117039631
 20
408.85542168674704
 30
0.0
 11
1244.0017211703962
 21
408.85542168674704
 31
0.0
  0
LINE
  5
2B1
100
AcDbEntity
  8
0
  6
CONTINUOUS
 62
               3
100
AcDbLine
 10
1244.0017211703962
 20
408.85542168674704
 30
0.0
 11
1244.0017211703962
 21
528.85542168674704
 31
0.0
  0
LINE
  5
2B2
100
AcDbEntity
  8
0
  6
CONTINUOUS
 62
               3
100
AcDbLine
 10
744.00172117039631
 20
528.85542168674704
 30
0.0
 11
1244.0017211703962
 21
528.85542168674704
 31
0.0
  0
LINE
  5
2B3
100
AcDbEntity
  8
0
  6
CONTINUOUS
 62
               3
100
AcDbLine
 10
744.00172117039631
 20
408.85542168674704
 30
0.0
 11
744.00172117039631
 21
528.85542168674704
 31
0.0
  0
ENDBLK
  5
2B4
100
AcDbEntity
  8
0
100
AcDbBlockEnd
  0
ENDSEC
  0
SECTION
  2
ENTITIES
  0
LINE
  5
2B5
100
AcDbEntity
  8
0
  6
CONTINUOUS
 62
               3
100
AcDbLine
 10
-1276.9982964591863
 20
105.53860936408086
 30
0.0
 11
-200.99829645918635
 21
105.53860936408086
 31
0.0
  0
LINE
  5
2B6
100
AcDbEntity
  8
0
  6
CONTINUOUS
 62
               3
100
AcDbLine
 10
-200.99829645918635
 20
975.53860936408091
 30
0.0
 11
-1276.9982964591863
 21
975.53860936408091
 31
0.0
  0
LINE
  5
2B7
100
AcDbEntity
  8
0
  6
CONTINUOUS
 62
               3
100
AcDbLine
 10
-1276.9982964591863
 20
975.53860936408091
 30
0.0
 11
-1276.9982964591863
 21
105.53860936408086
 31
0.0
  0
LINE
  5
2B8
100
AcDbEntity
  8
0
  6
CONTINUOUS
 62
               3
100
AcDbLine
 10
-200.99829645918635
 20
105.53860936408086
 30
0.0
 11
-200.99829645918635
 21
975.53860936408091
 31
0.0
  0
LINE
  5
2B9
100
AcDbEntity
  8
0
  6
CONTINUOUS
 62
               3
100
AcDbLine
 10
-226.99829645918635
 20
949.53860936408091
 30
0.0
 11
-1250.9982964591863
 21
949.53860936408091
 31
0.0
  0
LINE
  5
2BA
100
AcDbEntity
  8
0
  6
CONTINUOUS
 62
               3
100
AcDbLine
 10
-1250.9982964591863
 20
949.53860936408091
 30
0.0
 11
-1250.9982964591863
 21
175.53860936408086
 31
0.0
  0
LINE
  5
2BB
100
AcDbEntity
  8
0
  6
CONTINUOUS
 62
               3
100
AcDbLine
 10
-226.99829645918635
 20
175.53860936408086
 30
0.0
 11
-226.99829645918635
 21
949.53860936408091
 31
0.0
  0
LINE
  5
2BC
100
AcDbEntity
  8
0
  6
CONTINUOUS
 62
               3
100
AcDbLine
 10
-1250.9982964591863
 20
175.53860936408086
 30
0.0
 11
-226.99829645918635
 21
175.53860936408086
 31
0.0
  0
LINE
  5
2BD
100
AcDbEntity
  8
0
  6
CONTINUOUS
 62
               3
100
AcDbLine
 10
-1238.9982964591863
 20
187.53860936408103
 30
0.0
 11
-238.99829645918635
 21
187.53860936408103
 31
0.0
  0
LINE
  5
2BE
100
AcDbEntity
  8
0
  6
CONTINUOUS
 62
               3
100
AcDbLine
 10
-238.99829645918635
 20
937.53860936408103
 30
0.0
 11
-1238.9982964591863
 21
937.53860936408103
 31
0.0
  0
LINE
  5
2BF
100
AcDbEntity
  8
0
  6
CONTINUOUS
 62
               3
100
AcDbLine
 10
-1238.9982964591863
 20
937.53860936408103
 30
0.0
 11
-1238.9982964591863
 21
187.53860936408103
 31
0.0
  0
LINE
  5
2C0
100
AcDbEntity
  8
0
  6
CONTINUOUS
 62
               3
100
AcDbLine
 10
-238.99829645918635
 20
187.53860936408103
 30
0.0
 11
-238.99829645918635
 21
937.53860936408103
 31
0.0
  0
LINE
  5
2C1
100
AcDbEntity
  8
0
  6
CONTINUOUS
 62
               3
100
AcDbLine
 10
-200.99829645918635
 20
-69.461390635919145
 30
0.0
 11
-200.99829645918635
 21
-185.96139063591914
 31
0.0
  0
LINE
  5
2C2
100
AcDbEntity
  8
0
  6
CONTINUOUS
 62
               3
100
AcDbLine
 10
-1045.4982964591863
 20
-134.46139063591914
 30
0.0
 11
-432.49829645918635
 21
-134.46139063591914
 31
0.0
  0
LINE
  5
2C3
100
AcDbEntity
  8
0
  6
CONTINUOUS
 62
               3
100
AcDbLine
 10
-1096.9982964591863
 20
-185.96139063591914
 30
0.0
 11
-1045.4982964591863
 21
-134.46139063591914
 31
0.0
  0
LINE
  5
2C4
100
AcDbEntity
  8
0
  6
CONTINUOUS
 62
               3
100
AcDbLine
 10
-380.99829645918635
 20
-185.96139063591914
 30
0.0
 11
-432.49829645918635
 21
-134.46139063591914
 31
0.0
  0
LINE
  5
2C5
100
AcDbEntity
  8
0
  6
CONTINUOUS
 62
               3
100
AcDbLine
 10
-664.99829645918635
 20
-185.96139063591914
 30
0.0
 11
-200.99829645918635
 21
-185.96139063591914
 31
0.0
  0
LINE
  5
2C6
100
AcDbEntity
  8
0
  6
CONTINUOUS
 62
               3
100
AcDbLine
 10
-1276.9982964591863
 20
-69.461390635919145
 30
0.0
 11
-200.99829645918635
 21
-69.461390635919145
 31
0.0
  0
LINE
  5
2C7
100
AcDbEntity
  8
0
  6
CONTINUOUS
 62
               3
100
AcDbLine
 10
-1276.9982964591863
 20
-185.96139063591914
 30
0.0
 11
-696.99829645918635
 21
-185.96139063591914
 31
0.0
  0
LINE
  5
2C8
100
AcDbEntity
  8
0
  6
CONTINUOUS
 62
               3
100
AcDbLine
 10
569.00170354081365
 20
-69.461390635919145
 30
0.0
 11
1419.0017035408137
 21
-69.461390635919145
 31
0.0
  0
LINE
  5
2C9
100
AcDbEntity
  8
0
  6
CONTINUOUS
 62
               3
100
AcDbLine
 10
549.00170354081365
 20
-185.96139063591914
 30
0.0
 11
1419.0017035408137
 21
-185.96139063591914
 31
0.0
  0
LINE
  5
2CA
100
AcDbEntity
  8
0
  6
CONTINUOUS
 62
               3
100
AcDbLine
 10
549.00170354081365
 20
-89.461390635919145
 30
0.0
 11
549.00170354081365
 21
-185.96139063591914
 31
0.0
  0
ARC
  5
2CB
100
AcDbEntity
  8
0
  6
CONTINUOUS
 62
               3
100
AcDbCircle
 10
569.00170354081365
 20
-89.461390635919145
 30
0.0
 40
20.0
100
AcDbArc
 50
89.999999999999801
 51
179.9999999999996
  0
LINE
  5
2CC
100
AcDbEntity
  8
0
  6
CONTINUOUS
 62
               3
100
AcDbLine
 10
1419.0017035408137
 20
-69.461390635919145
 30
0.0
 11
1419.0017035408137
 21
-185.96139063591914
 31
0.0
  0
LINE
  5
2CD
100
AcDbEntity
  8
0
  6
CONTINUOUS
 62
               3
100
AcDbLine
 10
-1276.9982964591863
 20
-69.461390635919145
 30
0.0
 11
-1276.9982964591863
 21
-185.96139063591914
 31
0.0
  0
LINE
  5
2CE
100
AcDbEntity
  8
0
  6
CONTINUOUS
 62
               3
100
AcDbLine
 10
-1238.9982964591863
 20
-57.461390635919088
 30
0.0
 11
-1238.9982964591863
 21
-62.461390635919088
 31
0.0
  0
LINE
  5
2CF
100
AcDbEntity
  8
0
  6
CONTINUOUS
 62
               3
100
AcDbLine
 10
-248.99829645918635
 20
-190.46139063591923
 30
0.0
 11
-368.99829645918635
 21
-190.4613906359192
 31
0.0
  0
LINE
  5
2D0
100
AcDbEntity
  8
0
  6
CONTINUOUS
 62
               3
100
AcDbLine
 10
-248.99829645918635
 20
-185.96139063591914
 30
0.0
 11
-248.99829645918635
 21
-190.46139063591923
 31
0.0
  0
LINE
  5
2D1
100
AcDbEntity
  8
0
  6
CONTINUOUS
 62
               3
100
AcDbLine
 10
-368.99829645918635
 20
-190.4613906359192
 30
0.0
 11
-368.99829645918635
 21
-185.96139063591914
 31
0.0
  0
LINE
  5
2D2
100
AcDbEntity
  8
0
  6
CONTINUOUS
 62
               3
100
AcDbLine
 10
-203.99829645918635
 20
-187.46139063591923
 30
0.0
 11
-203.99829645918635
 21
-185.96139063591923
 31
0.0
  0
ARC
  5
2D3
100
AcDbEntity
  8
0
  6
CONTINUOUS
 62
               3
100
AcDbCircle
 10
-206.99829645918635
 20
-187.46139063591923
 30
0.0
 40
3.0
100
AcDbArc
 50
269.99999999999937
 51
359.9999999999992
  0
LINE
  5
2D4
100
AcDbEntity
  8
0
  6
CONTINUOUS
 62
               3
100
AcDbLine
 10
-248.99829645918635
 20
-190.46139063591923
 30
0.0
 11
-206.99829645918635
 21
-190.46139063591923
 31
0.0
  0
LINE
  5
2D5
100
AcDbEntity
  8
0
  6
CONTINUOUS
 62
               3
100
AcDbLine
 10
-258.99829645918635
 20
-190.46139063591946
 30
0.0
 11
-258.99829645918635
 21
-697.46139063591932
 31
0.0
  0
LINE
  5
2D6
100
AcDbEntity
  8
0
  6
CONTINUOUS
 62
               3
100
AcDbLine
 10
-358.99829645918635
 20
-190.46139063591943
 30
0.0
 11
-358.99829645918635
 21
-697.46139063591909
 31
0.0
  0
LINE
  5
2D7
100
AcDbEntity
  8
0
  6
CONTINUOUS
 62
               3
100
AcDbLine
 10
-258.99829645918635
 20
-697.46139063591932
 30
0.0
 11
-358.99829645918635
 21
-697.46139063591909
 31
0.0
  0
LINE
  5
2D8
100
AcDbEntity
  8
0
  6
CONTINUOUS
 62
               3
100
AcDbLine
 10
-326.29829645918653
 20
-748.46139063591909
 30
0.0
 11
-291.69829645918617
 21
-748.46139063591909
 31
0.0
  0
LINE
  5
2D9
100
AcDbEntity
  8
0
  6
CONTINUOUS
 62
               3
100
AcDbLine
 10
-326.29829645918653
 20
-748.46139063591909
 30
0.0
 11
-326.29829645918653
 21
-758.84480988218797
 31
0.0
  0
LINE
  5
2DA
100
AcDbEntity
  8
0
  6
CONTINUOUS
 62
               3
100
AcDbLine
 10
-317.63804242134211
 20
-758.84480988218797
 30
0.0
 11
-317.63804242134211
 21
-748.46139063591909
 31
0.0
  0
LINE
  5
2DB
100
AcDbEntity
  8
0
  6
CONTINUOUS
 62
               3
100
AcDbLine
 10
-328.99829645918635
 20
-760.46139063591909
 30
0.0
 11
-288.99829645918635
 21
-760.46139063591909
 31
0.0
  0
LINE
  5
2DC
100
AcDbEntity
  8
0
  6
CONTINUOUS
 62
               3
100
AcDbLine
 10
-291.69829645918617
 20
-748.46139063591909
 30
0.0
 11
-291.69829645918617
 21
-758.84480988218797
 31
0.0
  0
ARC
  5
2DD
100
AcDbEntity
  8
0
  6
CONTINUOUS
 62
               3
100
AcDbCircle
 10
-321.96816944026432
 20
-753.85382300156834
 30
0.0
 40
6.6075676343505885
100
AcDbArc
 50
229.05544096051565
 51
310.94455903948312
  0
ARC
  5
2DE
100
AcDbEntity
  8
0
  6
CONTINUOUS
 62
               3
100
AcDbCircle
 10
-296.02842347810838
 20
-753.85382300156834
 30
0.0
 40
6.6075676343505885
100
AcDbArc
 50
229.05544096051565
 51
310.94455903948312
  0
ARC
  5
2DF
100
AcDbEntity
  8
0
  6
CONTINUOUS
 62
               3
100
AcDbCircle
 10
-308.99829645918635
 20
-736.56572583674006
 30
0.0
 40
23.895664799178892
100
AcDbArc
 50
248.80389248660356
 51
291.19610751339525
  0
LINE
  5
2E0
100
AcDbEntity
  8
0
  6
CONTINUOUS
 62
               3
100
AcDbLine
 10
-278.99829645918635
 20
-768.46139063591909
 30
0.0
 11
-288.99829645918635
 21
-760.46139063591909
 31
0.0
  0
LINE
  5
2E1
100
AcDbEntity
  8
0
  6
CONTINUOUS
 62
               3
100
AcDbLine
 10
-300.35855049703059
 20
-758.84480988218797
 30
0.0
 11
-300.35855049703059
 21
-748.46139063591909
 31
0.0
  0
LINE
  5
2E2
100
AcDbEntity
  8
0
  6
CONTINUOUS
 62
               3
100
AcDbLine
 10
-300.35855049703059
 20
-706.84480988218831
 30
0.0
 11
-300.35855049703059
 21
-697.46139063591932
 31
0.0
  0
LINE
  5
2E3
100
AcDbEntity
  8
0
  6
CONTINUOUS
 62
               3
100
AcDbLine
 10
-338.99829645918635
 20
-768.46139063591909
 30
0.0
 11
-278.99829645918635
 21
-768.46139063591909
 31
0.0
  0
LINE
  5
2E4
100
AcDbEntity
  8
0
  6
CONTINUOUS
 62
               3
100
AcDbLine
 10
-338.99829645918635
 20
-768.46139063591909
 30
0.0
 11
-328.99829645918635
 21
-760.46139063591909
 31
0.0
  0
LINE
  5
2E5
100
AcDbEntity
  8
0
  6
CONTINUOUS
 62
               3
100
AcDbLine
 10
-1118.9982964591863
 20
-220.4613906359192
 30
0.0
 11
-358.99829645918635
 21
-220.4613906359192
 31
0.0
  0
LINE
  5
2E6
100
AcDbEntity
  8
0
  6
CONTINUOUS
 62
               3
100
AcDbLine
 10
-1118.9982964591863
 20
-295.4613906359192
 30
0.0
 11
-358.99829645918635
 21
-295.4613906359192
 31
0.0
  0
LINE
  5
2E7
100
AcDbEntity
  8
0
  6
CONTINUOUS
 62
               3
100
AcDbLine
 10
-358.99829645918635
 20
-602.46139063591909
 30
0.0
 11
-1118.9982964591863
 21
-602.46139063591897
 31
0.0
  0
LINE
  5
2E8
100
AcDbEntity
  8
0
  6
CONTINUOUS
 62
               3
100
AcDbLine
 10
-358.99829645918635
 20
-677.46139063591909
 30
0.0
 11
-1118.9982964591863
 21
-677.46139063591897
 31
0.0
  0
LINE
  5
2E9
100
AcDbEntity
  8
0
  6
CONTINUOUS
 62
               3
100
AcDbLine
 10
-411.49829645918635
 20
-684.46139063591909
 30
0.0
 11
-461.49829645918635
 21
-684.46139063591909
 31
0.0
  0
LINE
  5
2EA
100
AcDbEntity
  8
0
  6
CONTINUOUS
 62
               3
100
AcDbLine
 10
-401.49829645918635
 20
-677.46139063591909
 30
0.0
 11
-401.49829645918635
 21
-679.96139063591909
 31
0.0
  0
LINE
  5
2EB
100
AcDbEntity
  8
0
  6
CONTINUOUS
 62
               3
100
AcDbLine
 10
-401.49829645918635
 20
-679.96139063591909
 30
0.0
 11
-471.49829645918635
 21
-679.96139063591909
 31
0.0
  0
LINE
  5
2EC
100
AcDbEntity
  8
0
  6
CONTINUOUS
 62
               3
100
AcDbLine
 10
-471.49829645918635
 20
-677.46139063591909
 30
0.0
 11
-471.49829645918635
 21
-679.96139063591909
 31
0.0
  0
LINE
  5
2ED
100
AcDbEntity
  8
0
  6
CONTINUOUS
 62
               3
100
AcDbLine
 10
-411.49829645918635
 20
-686.46139063591909
 30
0.0
 11
-461.49829645918635
 21
-686.46139063591909
 31
0.0
  0
CIRCLE
  5
2EE
100
AcDbEntity
  8
0
  6
CONTINUOUS
 62
               3
100
AcDbCircle
 10
-408.49829645918635
 20
-732.96139063591909
 30
0.0
 40
6.0
  0
LINE
  5
2EF
100
AcDbEntity
  8
0
  6
CONTINUOUS
 62
               3
100
AcDbLine
 10
-414.49829645918635
 20
-687.46139063591909
 30
0.0
 11
-458.49829645918635
 21
-687.46139063591909
 31
0.0
  0
LINE
  5
2F0
100
AcDbEntity
  8
0
  6
CONTINUOUS
 62
               3
100
AcDbLine
 10
-461.49829645918635
 20
-684.46139063591909
 30
0.0
 11
-461.49829645918635
 21
-686.46139063591909
 31
0.0
  0
LINE
  5
2F1
100
AcDbEntity
  8
0
  6
CONTINUOUS
 62
               3
100
AcDbLine
 10
-461.49829645918635
 20
-690.46139063591909
 30
0.0
 11
-461.49829645918635
 21
-697.46139063591909
 31
0.0
  0
LINE
  5
2F2
100
AcDbEntity
  8
0
  6
CONTINUOUS
 62
               3
100
AcDbLine
 10
-411.49829645918635
 20
-686.46139063591909
 30
0.0
 11
-411.49829645918635
 21
-684.46139063591909
 31
0.0
  0
LINE
  5
2F3
100
AcDbEntity
  8
0
  6
CONTINUOUS
 62
               3
100
AcDbLine
 10
-443.52260291599578
 20
-701.84461779822982
 30
0.0
 11
-418.01289517230907
 21
-739.42067939926164
 31
0.0
  0
LINE
  5
2F4
100
AcDbEntity
  8
0
  6
CONTINUOUS
 62
               3
100
AcDbLine
 10
-451.79616701436316
 20
-697.46139063591909
 30
0.0
 11
-461.49829645918635
 21
-697.46139063591909
 31
0.0
  0
ARC
  5
2F5
100
AcDbEntity
  8
0
  6
CONTINUOUS
 62
               3
100
AcDbCircle
 10
-408.49829645918635
 20
-732.96139063591909
 30
0.0
 40
11.499999999999998
100
AcDbArc
 50
214.17187263484846
 51
370.77344463711404
  0
ARC
  5
2F6
100
AcDbEntity
  8
0
  6
CONTINUOUS
 62
               3
100
AcDbCircle
 10
-451.79616701436316
 20
-707.46139063591909
 30
0.0
 40
10.0
100
AcDbArc
 50
34.171872634848803
 51
89.999999999999801
  0
LINE
  5
2F7
100
AcDbEntity
  8
0
  6
CONTINUOUS
 62
               3
100
AcDbLine
 10
-405.96549254706133
 20
-692.46139063591909
 30
0.0
 11
-409.49829645918635
 21
-692.46139063591909
 31
0.0
  0
LINE
  5
2F8
100
AcDbEntity
  8
0
  6
CONTINUOUS
 62
               3
100
AcDbLine
 10
-400.99706575347591
 20
-696.9003779829585
 30
0.0
 11
-397.07091483394015
 21
-731.67106153410987
 31
0.0
  0
ARC
  5
2F9
100
AcDbEntity
  8
0
  6
CONTINUOUS
 62
               3
100
AcDbCircle
 10
-405.96549254706133
 20
-697.46139063591909
 30
0.0
 40
5.0
100
AcDbArc
 50
6.4422974365453145
 51
89.999999999999801
  0
ARC
  5
2FA
100
AcDbEntity
  8
0
  6
CONTINUOUS
 62
               3
100
AcDbCircle
 10
-414.49829645918635
 20
-690.46139063591909
 30
0.0
 40
3.0
100
AcDbArc
 50
0.0
 51
89.999999999999801
  0
ARC
  5
2FB
100
AcDbEntity
  8
0
  6
CONTINUOUS
 62
               3
100
AcDbCircle
 10
-458.49829645918635
 20
-690.46139063591909
 30
0.0
 40
3.0
100
AcDbArc
 50
89.999999999999801
 51
179.9999999999996
  0
ARC
  5
2FC
100
AcDbEntity
  8
0
  6
CONTINUOUS
 62
               3
100
AcDbCircle
 10
-409.49829645918635
 20
-690.46139063591909
 30
0.0
 40
2.0
100
AcDbArc
 50
179.9999999999996
 51
269.99999999999937
  0
ARC
  5
2FD
100
AcDbEntity
  8
0
  6
CONTINUOUS
 62
               3
100
AcDbCircle
 10
-408.49829645918635
 20
-732.96139063591909
 30
0.0
 40
37.5
100
AcDbArc
 50
142.03033533325586
 51
438.66703613998925
  0
ARC
  5
2FE
100
AcDbEntity
  8
0
  6
CONTINUOUS
 62
               3
100
AcDbCircle
 10
-414.49829645918635
 20
-680.46139063591909
 30
0.0
 40
3.0
100
AcDbArc
 50
269.99999999999937
 51
359.9999999999992
  0
LINE
  5
2FF
100
AcDbEntity
  8
0
  6
CONTINUOUS
 62
               3
100
AcDbLine
 10
-414.49829645918635
 20
-683.46139063591909
 30
0.0
 11
-458.49829645918635
 21
-683.46139063591909
 31
0.0
  0
ARC
  5
300
100
AcDbEntity
  8
0
  6
CONTINUOUS
 62
               3
100
AcDbCircle
 10
-458.49829645918635
 20
-680.46139063591909
 30
0.0
 40
3.0
100
AcDbArc
 50
179.9999999999996
 51
269.99999999999937
  0
LINE
  5
301
100
AcDbEntity
  8
0
  6
CONTINUOUS
 62
               3
100
AcDbLine
 10
-461.49829645918635
 20
-679.96139063591909
 30
0.0
 11
-461.49829645918635
 21
-680.46139063591909
 31
0.0
  0
LINE
  5
302
100
AcDbEntity
  8
0
  6
CONTINUOUS
 62
               3
100
AcDbLine
 10
-411.49829645918635
 20
-679.96139063591909
 30
0.0
 11
-411.49829645918635
 21
-680.46139063591909
 31
0.0
  0
ARC
  5
303
100
AcDbEntity
  8
0
  6
CONTINUOUS
 62
               3
100
AcDbCircle
 10
-408.49829645918635
 20
-732.96139063591909
 30
0.0
 40
27.5
100
AcDbArc
 50
148.89172381775913
 51
431.72244625363385
  0
LINE
  5
304
100
AcDbEntity
  8
0
  6
CONTINUOUS
 62
               3
100
AcDbLine
 10
-1238.9982964591863
 20
-57.461390635919088
 30
0.0
 11
-238.99829645918635
 21
-57.461390635919088
 31
0.0
  0
LINE
  5
305
100
AcDbEntity
  8
0
  6
CONTINUOUS
 62
               3
100
AcDbLine
 10
-1218.9982964591863
 20
-697.46139063591932
 30
0.0
 11
-1118.9982964591863
 21
-697.46139063591909
 31
0.0
  0
LINE
  5
306
100
AcDbEntity
  8
0
  6
CONTINUOUS
 62
               3
100
AcDbLine
 10
-1151.6982964591871
 20
-748.46139063591909
 30
0.0
 11
-1186.2982964591865
 21
-748.46139063591909
 31
0.0
  0
LINE
  5
307
100
AcDbEntity
  8
0
  6
CONTINUOUS
 62
               3
100
AcDbLine
 10
-1151.6982964591871
 20
-748.46139063591909
 30
0.0
 11
-1151.6982964591871
 21
-758.84480988218797
 31
0.0
  0
LINE
  5
308
100
AcDbEntity
  8
0
  6
CONTINUOUS
 62
               3
100
AcDbLine
 10
-1160.3585504970315
 20
-758.84480988218797
 30
0.0
 11
-1160.3585504970315
 21
-748.46139063591909
 31
0.0
  0
LINE
  5
309
100
AcDbEntity
  8
0
  6
CONTINUOUS
 62
               3
100
AcDbLine
 10
-1148.9982964591873
 20
-760.46139063591909
 30
0.0
 11
-1188.9982964591863
 21
-760.46139063591909
 31
0.0
  0
LINE
  5
30A
100
AcDbEntity
  8
0
  6
CONTINUOUS
 62
               3
100
AcDbLine
 10
-1186.2982964591865
 20
-748.46139063591909
 30
0.0
 11
-1186.2982964591865
 21
-758.84480988218797
 31
0.0
  0
ARC
  5
30B
100
AcDbEntity
  8
0
  6
CONTINUOUS
 62
               3
100
AcDbCircle
 10
-1156.0284234781093
 20
-753.85382300156834
 30
0.0
 40
6.6075676343505885
100
AcDbArc
 50
229.05544096051565
 51
310.94455903948312
  0
ARC
  5
30C
100
AcDbEntity
  8
0
  6
CONTINUOUS
 62
               3
100
AcDbCircle
 10
-1181.9681694402643
 20
-753.85382300156834
 30
0.0
 40
6.6075676343505885
100
AcDbArc
 50
229.05544096051565
 51
310.94455903948312
  0
ARC
  5
30D
100
AcDbEntity
  8
0
  6
CONTINUOUS
 62
               3
100
AcDbCircle
 10
-1168.9982964591863
 20
-736.56572583674006
 30
0.0
 40
23.895664799178892
100
AcDbArc
 50
248.80389248660356
 51
291.19610751339525
  0
LINE
  5
30E
100
AcDbEntity
  8
0
  6
CONTINUOUS
 62
               3
100
AcDbLine
 10
-1198.9982964591863
 20
-768.46139063591909
 30
0.0
 11
-1188.9982964591863
 21
-760.46139063591909
 31
0.0
  0
LINE
  5
30F
100
AcDbEntity
  8
0
  6
CONTINUOUS
 62
               3
100
AcDbLine
 10
-1177.6380424213421
 20
-758.84480988218797
 30
0.0
 11
-1177.6380424213421
 21
-748.46139063591909
 31
0.0
  0
LINE
  5
310
100
AcDbEntity
  8
0
  6
CONTINUOUS
 62
               3
100
AcDbLine
 10
-1177.6380424213421
 20
-706.84480988218831
 30
0.0
 11
-1177.6380424213421
 21
-697.46139063591932
 31
0.0
  0
LINE
  5
311
100
AcDbEntity
  8
0
  6
CONTINUOUS
 62
               3
100
AcDbLine
 10
-1138.9982964591863
 20
-768.46139063591909
 30
0.0
 11
-1198.9982964591863
 21
-768.46139063591909
 31
0.0
  0
LINE
  5
312
100
AcDbEntity
  8
0
  6
CONTINUOUS
 62
               3
100
AcDbLine
 10
-1138.9982964591863
 20
-768.46139063591909
 30
0.0
 11
-1148.9982964591863
 21
-760.46139063591909
 31
0.0
  0
LINE
  5
313
100
AcDbEntity
  8
0
  6
CONTINUOUS
 62
               3
100
AcDbLine
 10
-1066.4982964591863
 20
-684.46139063591909
 30
0.0
 11
-1016.4982964591863
 21
-684.46139063591909
 31
0.0
  0
LINE
  5
314
100
AcDbEntity
  8
0
  6
CONTINUOUS
 62
               3
100
AcDbLine
 10
-1076.4982964591863
 20
-677.46139063591909
 30
0.0
 11
-1076.4982964591863
 21
-679.96139063591909
 31
0.0
  0
LINE
  5
315
100
AcDbEntity
  8
0
  6
CONTINUOUS
 62
               3
100
AcDbLine
 10
-1076.4982964591863
 20
-679.96139063591909
 30
0.0
 11
-1006.4982964591863
 21
-679.96139063591909
 31
0.0
  0
LINE
  5
316
100
AcDbEntity
  8
0
  6
CONTINUOUS
 62
               3
100
AcDbLine
 10
-1006.4982964591863
 20
-677.46139063591909
 30
0.0
 11
-1006.4982964591863
 21
-679.96139063591909
 31
0.0
  0
LINE
  5
317
100
AcDbEntity
  8
0
  6
CONTINUOUS
 62
               3
100
AcDbLine
 10
-1066.4982964591863
 20
-686.46139063591909
 30
0.0
 11
-1016.4982964591863
 21
-686.46139063591909
 31
0.0
  0
CIRCLE
  5
318
100
AcDbEntity
  8
0
  6
CONTINUOUS
 62
               3
100
AcDbCircle
 10
-1069.4982964591863
 20
-732.96139063591909
 30
0.0
 40
6.0
  0
LINE
  5
319
100
AcDbEntity
  8
0
  6
CONTINUOUS
 62
               3
100
AcDbLine
 10
-1063.4982964591863
 20
-687.46139063591909
 30
0.0
 11
-1019.4982964591863
 21
-687.46139063591909
 31
0.0
  0
LINE
  5
31A
100
AcDbEntity
  8
0
  6
CONTINUOUS
 62
               3
100
AcDbLine
 10
-1016.4982964591863
 20
-684.46139063591909
 30
0.0
 11
-1016.4982964591863
 21
-686.46139063591909
 31
0.0
  0
LINE
  5
31B
100
AcDbEntity
  8
0
  6
CONTINUOUS
 62
               3
100
AcDbLine
 10
-1016.4982964591863
 20
-690.46139063591909
 30
0.0
 11
-1016.4982964591863
 21
-697.46139063591909
 31
0.0
  0
LINE
  5
31C
100
AcDbEntity
  8
0
  6
CONTINUOUS
 62
               3
100
AcDbLine
 10
-1066.4982964591863
 20
-686.46139063591909
 30
0.0
 11
-1066.4982964591863
 21
-684.46139063591909
 31
0.0
  0
LINE
  5
31D
100
AcDbEntity
  8
0
  6
CONTINUOUS
 62
               3
100
AcDbLine
 10
-1034.4739900023778
 20
-701.84461779822982
 30
0.0
 11
-1059.9836977460636
 21
-739.42067939926164
 31
0.0
  0
LINE
  5
31E
100
AcDbEntity
  8
0
  6
CONTINUOUS
 62
               3
100
AcDbLine
 10
-1026.20042590401
 20
-697.46139063591909
 30
0.0
 11
-1016.4982964591863
 21
-697.46139063591909
 31
0.0
  0
ARC
  5
31F
100
AcDbEntity
  8
0
  6
CONTINUOUS
 62
               3
100
AcDbCircle
 10
-1069.4982964591863
 20
-732.96139063591909
 30
0.0
 40
11.499999999999998
100
AcDbArc
 50
169.22655536288474
 51
325.82812736515035
  0
ARC
  5
320
100
AcDbEntity
  8
0
  6
CONTINUOUS
 62
               3
100
AcDbCircle
 10
-1026.20042590401
 20
-707.46139063591909
 30
0.0
 40
10.0
100
AcDbArc
 50
89.999999999999801
 51
145.82812736515081
  0
LINE
  5
321
100
AcDbEntity
  8
0
  6
CONTINUOUS
 62
               3
100
AcDbLine
 10
-1072.0311003713118
 20
-692.46139063591909
 30
0.0
 11
-1068.4982964591863
 21
-692.46139063591909
 31
0.0
  0
LINE
  5
322
100
AcDbEntity
  8
0
  6
CONTINUOUS
 62
               3
100
AcDbLine
 10
-1076.9995271648972
 20
-696.9003779829585
 30
0.0
 11
-1080.9256780844335
 21
-731.67106153410987
 31
0.0
  0
ARC
  5
323
100
AcDbEntity
  8
0
  6
CONTINUOUS
 62
               3
100
AcDbCircle
 10
-1072.0311003713118
 20
-697.46139063591909
 30
0.0
 40
5.0
100
AcDbArc
 50
89.999999999999801
 51
173.55770256345428
  0
ARC
  5
324
100
AcDbEntity
  8
0
  6
CONTINUOUS
 62
               3
100
AcDbCircle
 10
-1063.4982964591863
 20
-690.46139063591909
 30
0.0
 40
3.0
100
AcDbArc
 50
89.999999999999801
 51
179.9999999999996
  0
ARC
  5
325
100
AcDbEntity
  8
0
  6
CONTINUOUS
 62
               3
100
AcDbCircle
 10
-1019.4982964591863
 20
-690.46139063591909
 30
0.0
 40
3.0
100
AcDbArc
 50
0.0
 51
89.999999999999801
  0
ARC
  5
326
100
AcDbEntity
  8
0
  6
CONTINUOUS
 62
               3
100
AcDbCircle
 10
-1068.4982964591863
 20
-690.46139063591909
 30
0.0
 40
2.0
100
AcDbArc
 50
269.99999999999937
 51
359.9999999999992
  0
ARC
  5
327
100
AcDbEntity
  8
0
  6
CONTINUOUS
 62
               3
100
AcDbCircle
 10
-1069.4982964591863
 20
-732.96139063591909
 30
0.0
 40
37.5
100
AcDbArc
 50
101.33296386000954
 51
397.96966466674291
  0
ARC
  5
328
100
AcDbEntity
  8
0
  6
CONTINUOUS
 62
               3
100
AcDbCircle
 10
-1063.4982964591863
 20
-680.46139063591909
 30
0.0
 40
3.0
100
AcDbArc
 50
179.9999999999996
 51
269.99999999999937
  0
LINE
  5
329
100
AcDbEntity
  8
0
  6
CONTINUOUS
 62
               3
100
AcDbLine
 10
-1063.4982964591863
 20
-683.46139063591909
 30
0.0
 11
-1019.4982964591863
 21
-683.46139063591909
 31
0.0
  0
ARC
  5
32A
100
AcDbEntity
  8
0
  6
CONTINUOUS
 62
               3
100
AcDbCircle
 10
-1019.4982964591863
 20
-680.46139063591909
 30
0.0
 40
3.0
100
AcDbArc
 50
269.99999999999937
 51
359.9999999999992
  0
LINE
  5
32B
100
AcDbEntity
  8
0
  6
CONTINUOUS
 62
               3
100
AcDbLine
 10
-1016.4982964591863
 20
-679.96139063591909
 30
0.0
 11
-1016.4982964591863
 21
-680.46139063591909
 31
0.0
  0
LINE
  5
32C
100
AcDbEntity
  8
0
  6
CONTINUOUS
 62
               3
100
AcDbLine
 10
-1066.4982964591863
 20
-679.96139063591909
 30
0.0
 11
-1066.4982964591863
 21
-680.46139063591909
 31
0.0
  0
ARC
  5
32D
100
AcDbEntity
  8
0
  6
CONTINUOUS
 62
               3
100
AcDbCircle
 10
-1069.4982964591863
 20
-732.96139063591909
 30
0.0
 40
27.5
100
AcDbArc
 50
108.27755374636496
 51
391.10827618223965
  0
LINE
  5
32E
100
AcDbEntity
  8
0
  6
CONTINUOUS
 62
               3
100
AcDbLine
 10
-1228.9982964591868
 20
-190.46139063591923
 30
0.0
 11
-1108.9982964591868
 21
-190.4613906359192
 31
0.0
  0
LINE
  5
32F
100
AcDbEntity
  8
0
  6
CONTINUOUS
 62
               3
100
AcDbLine
 10
-1228.9982964591868
 20
-185.96139063591914
 30
0.0
 11
-1228.9982964591868
 21
-190.46139063591923
 31
0.0
  0
LINE
  5
330
100
AcDbEntity
  8
0
  6
CONTINUOUS
 62
               3
100
AcDbLine
 10
-1108.9982964591868
 20
-190.4613906359192
 30
0.0
 11
-1108.9982964591868
 21
-185.96139063591914
 31
0.0
  0
LINE
  5
331
100
AcDbEntity
  8
0
  6
CONTINUOUS
 62
               3
100
AcDbLine
 10
-1273.9982964591868
 20
-187.46139063591923
 30
0.0
 11
-1273.9982964591868
 21
-185.96139063591923
 31
0.0
  0
ARC
  5
332
100
AcDbEntity
  8
0
  6
CONTINUOUS
 62
               3
100
AcDbCircle
 10
-1270.9982964591868
 20
-187.46139063591923
 30
0.0
 40
3.0
100
AcDbArc
 50
179.9999999999996
 51
269.99999999999937
  0
LINE
  5
333
100
AcDbEntity
  8
0
  6
CONTINUOUS
 62
               3
100
AcDbLine
 10
-1228.9982964591868
 20
-190.46139063591923
 30
0.0
 11
-1270.9982964591868
 21
-190.46139063591923
 31
0.0
  0
LINE
  5
334
100
AcDbEntity
  8
0
  6
CONTINUOUS
 62
               3
100
AcDbLine
 10
-1218.9982964591863
 20
-190.46139063591946
 30
0.0
 11
-1218.9982964591863
 21
-697.46139063591932
 31
0.0
  0
LINE
  5
335
100
AcDbEntity
  8
0
  6
CONTINUOUS
 62
               3
100
AcDbLine
 10
-1118.9982964591863
 20
-190.46139063591943
 30
0.0
 11
-1118.9982964591863
 21
-697.46139063591909
 31
0.0
  0
LINE
  5
336
100
AcDbEntity
  8
0
  6
CONTINUOUS
 62
               3
100
AcDbLine
 10
-1233.9982964591863
 20
-62.461390635919088
 30
0.0
 11
-1233.9982964591863
 21
-69.461390635919145
 31
0.0
  0
LINE
  5
337
100
AcDbEntity
  8
0
  6
CONTINUOUS
 62
               3
100
AcDbLine
 10
-238.99829645918635
 20
-57.461390635919088
 30
0.0
 11
-238.99829645918635
 21
-62.461390635919088
 31
0.0
  0
LINE
  5
338
100
AcDbEntity
  8
0
  6
CONTINUOUS
 62
               3
100
AcDbLine
 10
-243.99829645918635
 20
-62.461390635919088
 30
0.0
 11
-243.99829645918635
 21
-69.461390635919145
 31
0.0
  0
LINE
  5
339
100
AcDbEntity
  8
0
  6
CONTINUOUS
 62
               3
100
AcDbLine
 10
1381.0017035408137
 20
-57.461390635919088
 30
0.0
 11
1381.0017035408137
 21
-62.461390635919088
 31
0.0
  0
LINE
  5
33A
100
AcDbEntity
  8
0
  6
CONTINUOUS
 62
               3
100
AcDbLine
 10
1376.0017035408137
 20
-62.461390635919088
 30
0.0
 11
1376.0017035408137
 21
-69.461390635919145
 31
0.0
  0
LINE
  5
33B
100
AcDbEntity
  8
0
  6
CONTINUOUS
 62
               3
100
AcDbLine
 10
631.00170354081365
 20
-57.461390635919088
 30
0.0
 11
1381.0017035408137
 21
-57.461390635919088
 31
0.0
  0
LINE
  5
33C
100
AcDbEntity
  8
0
  6
CONTINUOUS
 62
               3
100
AcDbLine
 10
631.00170354081365
 20
-57.461390635919088
 30
0.0
 11
631.00170354081365
 21
-62.461390635919088
 31
0.0
  0
LINE
  5
33D
100
AcDbEntity
  8
0
  6
CONTINUOUS
 62
               3
100
AcDbLine
 10
636.00170354081365
 20
-62.461390635919088
 30
0.0
 11
636.00170354081365
 21
-69.461390635919145
 31
0.0
  0
LINE
  5
33E
100
AcDbEntity
  8
0
  6
CONTINUOUS
 62
               3
100
AcDbLine
 10
761.00170354081365
 20
-190.46139063591923
 30
0.0
 11
641.00170354081365
 21
-190.4613906359192
 31
0.0
  0
LINE
  5
33F
100
AcDbEntity
  8
0
  6
CONTINUOUS
 62
               3
100
AcDbLine
 10
761.00170354081365
 20
-185.96139063591914
 30
0.0
 11
761.00170354081365
 21
-190.46139063591923
 31
0.0
  0
LINE
  5
340
100
AcDbEntity
  8
0
  6
CONTINUOUS
 62
               3
100
AcDbLine
 10
641.00170354081365
 20
-190.4613906359192
 30
0.0
 11
641.00170354081365
 21
-185.96139063591914
 31
0.0
  0
LINE
  5
341
100
AcDbEntity
  8
0
  6
CONTINUOUS
 62
               3
100
AcDbLine
 10
751.00170354081365
 20
-190.46139063591946
 30
0.0
 11
751.00170354081365
 21
-697.46139063591932
 31
0.0
  0
LINE
  5
342
100
AcDbEntity
  8
0
  6
CONTINUOUS
 62
               3
100
AcDbLine
 10
651.00170354081365
 20
-190.46139063591943
 30
0.0
 11
651.00170354081365
 21
-697.46139063591909
 31
0.0
  0
LINE
  5
343
100
AcDbEntity
  8
0
  6
CONTINUOUS
 62
               3
100
AcDbLine
 10
751.00170354081365
 20
-697.46139063591932
 30
0.0
 11
651.00170354081365
 21
-697.46139063591909
 31
0.0
  0
LINE
  5
344
100
AcDbEntity
  8
0
  6
CONTINUOUS
 62
               3
100
AcDbLine
 10
683.70170354081347
 20
-748.46139063591909
 30
0.0
 11
718.30170354081383
 21
-748.46139063591909
 31
0.0
  0
LINE
  5
345
100
AcDbEntity
  8
0
  6
CONTINUOUS
 62
               3
100
AcDbLine
 10
683.70170354081347
 20
-748.46139063591909
 30
0.0
 11
683.70170354081347
 21
-758.84480988218797
 31
0.0
  0
LINE
  5
346
100
AcDbEntity
  8
0
  6
CONTINUOUS
 62
               3
100
AcDbLine
 10
692.36195757865789
 20
-758.84480988218797
 30
0.0
 11
692.36195757865789
 21
-748.46139063591909
 31
0.0
  0
LINE
  5
347
100
AcDbEntity
  8
0
  6
CONTINUOUS
 62
               3
100
AcDbLine
 10
681.00170354081365
 20
-760.46139063591909
 30
0.0
 11
721.00170354081365
 21
-760.46139063591909
 31
0.0
  0
LINE
  5
348
100
AcDbEntity
  8
0
  6
CONTINUOUS
 62
               3
100
AcDbLine
 10
718.30170354081383
 20
-748.46139063591909
 30
0.0
 11
718.30170354081383
 21
-758.84480988218797
 31
0.0
  0
ARC
  5
349
100
AcDbEntity
  8
0
  6
CONTINUOUS
 62
               3
100
AcDbCircle
 10
688.03183055973568
 20
-753.85382300156834
 30
0.0
 40
6.6075676343505885
100
AcDbArc
 50
229.05544096051565
 51
310.94455903948312
  0
ARC
  5
34A
100
AcDbEntity
  8
0
  6
CONTINUOUS
 62
               3
100
AcDbCircle
 10
713.97157652189162
 20
-753.85382300156834
 30
0.0
 40
6.6075676343505885
100
AcDbArc
 50
229.05544096051565
 51
310.94455903948312
  0
ARC
  5
34B
100
AcDbEntity
  8
0
  6
CONTINUOUS
 62
               3
100
AcDbCircle
 10
701.00170354081365
 20
-736.56572583674006
 30
0.0
 40
23.895664799178892
100
AcDbArc
 50
248.80389248660356
 51
291.19610751339525
  0
LINE
  5
34C
100
AcDbEntity
  8
0
  6
CONTINUOUS
 62
               3
100
AcDbLine
 10
731.00170354081365
 20
-768.46139063591909
 30
0.0
 11
721.00170354081365
 21
-760.46139063591909
 31
0.0
  0
LINE
  5
34D
100
AcDbEntity
  8
0
  6
CONTINUOUS
 62
               3
100
AcDbLine
 10
709.64144950296941
 20
-758.84480988218797
 30
0.0
 11
709.64144950296941
 21
-748.46139063591909
 31
0.0
  0
LINE
  5
34E
100
AcDbEntity
  8
0
  6
CONTINUOUS
 62
               3
100
AcDbLine
 10
709.64144950296941
 20
-706.84480988218831
 30
0.0
 11
709.64144950296941
 21
-697.46139063591932
 31
0.0
  0
LINE
  5
34F
100
AcDbEntity
  8
0
  6
CONTINUOUS
 62
               3
100
AcDbLine
 10
671.00170354081365
 20
-768.46139063591909
 30
0.0
 11
731.00170354081365
 21
-768.46139063591909
 31
0.0
  0
LINE
  5
350
100
AcDbEntity
  8
0
  6
CONTINUOUS
 62
               3
100
AcDbLine
 10
671.00170354081365
 20
-768.46139063591909
 30
0.0
 11
681.00170354081365
 21
-760.46139063591909
 31
0.0
  0
LINE
  5
351
100
AcDbEntity
  8
0
  6
CONTINUOUS
 62
               3
100
AcDbLine
 10
676.00170354081365
 20
-185.96139063591914
 30
0.0
 11
676.00170354081365
 21
-190.46139063591923
 31
0.0
  0
LINE
  5
352
100
AcDbEntity
  8
0
  6
CONTINUOUS
 62
               3
100
AcDbLine
 10
726.00170354081365
 20
-185.96139063591914
 30
0.0
 11
726.00170354081365
 21
-190.46139063591923
 31
0.0
  0
LINE
  5
353
100
AcDbEntity
  8
0
  6
CONTINUOUS
 62
               3
100
AcDbLine
 10
1251.0017035408127
 20
-190.46139063591923
 30
0.0
 11
1371.0017035408127
 21
-190.4613906359192
 31
0.0
  0
LINE
  5
354
100
AcDbEntity
  8
0
  6
CONTINUOUS
 62
               3
100
AcDbLine
 10
1251.0017035408127
 20
-185.96139063591914
 30
0.0
 11
1251.0017035408127
 21
-190.46139063591923
 31
0.0
  0
LINE
  5
355
100
AcDbEntity
  8
0
  6
CONTINUOUS
 62
               3
100
AcDbLine
 10
1371.0017035408127
 20
-190.4613906359192
 30
0.0
 11
1371.0017035408127
 21
-185.96139063591914
 31
0.0
  0
LINE
  5
356
100
AcDbEntity
  8
0
  6
CONTINUOUS
 62
               3
100
AcDbLine
 10
1261.0017035408137
 20
-190.46139063591946
 30
0.0
 11
1261.0017035408137
 21
-697.46139063591932
 31
0.0
  0
LINE
  5
357
100
AcDbEntity
  8
0
  6
CONTINUOUS
 62
               3
100
AcDbLine
 10
1361.0017035408137
 20
-190.46139063591943
 30
0.0
 11
1361.0017035408137
 21
-697.46139063591909
 31
0.0
  0
LINE
  5
358
100
AcDbEntity
  8
0
  6
CONTINUOUS
 62
               3
100
AcDbLine
 10
1261.0017035408137
 20
-697.46139063591932
 30
0.0
 11
1361.0017035408137
 21
-697.46139063591909
 31
0.0
  0
LINE
  5
359
100
AcDbEntity
  8
0
  6
CONTINUOUS
 62
               3
100
AcDbLine
 10
1328.3017035408129
 20
-748.46139063591909
 30
0.0
 11
1293.7017035408135
 21
-748.46139063591909
 31
0.0
  0
LINE
  5
35A
100
AcDbEntity
  8
0
  6
CONTINUOUS
 62
               3
100
AcDbLine
 10
1328.3017035408129
 20
-748.46139063591909
 30
0.0
 11
1328.3017035408129
 21
-758.84480988218797
 31
0.0
  0
LINE
  5
35B
100
AcDbEntity
  8
0
  6
CONTINUOUS
 62
               3
100
AcDbLine
 10
1319.6414495029685
 20
-758.84480988218797
 30
0.0
 11
1319.6414495029685
 21
-748.46139063591909
 31
0.0
  0
LINE
  5
35C
100
AcDbEntity
  8
0
  6
CONTINUOUS
 62
               3
100
AcDbLine
 10
1331.0017035408127
 20
-760.46139063591909
 30
0.0
 11
1291.0017035408137
 21
-760.46139063591909
 31
0.0
  0
LINE
  5
35D
100
AcDbEntity
  8
0
  6
CONTINUOUS
 62
               3
100
AcDbLine
 10
1293.7017035408135
 20
-748.46139063591909
 30
0.0
 11
1293.7017035408135
 21
-758.84480988218797
 31
0.0
  0
ARC
  5
35E
100
AcDbEntity
  8
0
  6
CONTINUOUS
 62
               3
100
AcDbCircle
 10
1323.9715765218907
 20
-753.85382300156834
 30
0.0
 40
6.6075676343505885
100
AcDbArc
 50
229.05544096051565
 51
310.94455903948312
  0
ARC
  5
35F
100
AcDbEntity
  8
0
  6
CONTINUOUS
 62
               3
100
AcDbCircle
 10
1298.0318305597357
 20
-753.85382300156834
 30
0.0
 40
6.6075676343505885
100
AcDbArc
 50
229.05544096051565
 51
310.94455903948312
  0
ARC
  5
360
100
AcDbEntity
  8
0
  6
CONTINUOUS
 62
               3
100
AcDbCircle
 10
1311.0017035408137
 20
-736.56572583674006
 30
0.0
 40
23.895664799178892
100
AcDbArc
 50
248.80389248660356
 51
291.19610751339525
  0
LINE
  5
361
100
AcDbEntity
  8
0
  6
CONTINUOUS
 62
               3
100
AcDbLine
 10
1281.0017035408137
 20
-768.46139063591909
 30
0.0
 11
1291.0017035408137
 21
-760.46139063591909
 31
0.0
  0
LINE
  5
362
100
AcDbEntity
  8
0
  6
CONTINUOUS
 62
               3
100
AcDbLine
 10
1302.3619575786579
 20
-758.84480988218797
 30
0.0
 11
1302.3619575786579
 21
-748.46139063591909
 31
0.0
  0
LINE
  5
363
100
AcDbEntity
  8
0
  6
CONTINUOUS
 62
               3
100
AcDbLine
 10
1302.3619575786579
 20
-706.84480988218831
 30
0.0
 11
1302.3619575786579
 21
-697.46139063591932
 31
0.0
  0
LINE
  5
364
100
AcDbEntity
  8
0
  6
CONTINUOUS
 62
               3
100
AcDbLine
 10
1341.0017035408137
 20
-768.46139063591909
 30
0.0
 11
1281.0017035408137
 21
-768.46139063591909
 31
0.0
  0
LINE
  5
365
100
AcDbEntity
  8
0
  6
CONTINUOUS
 62
               3
100
AcDbLine
 10
1341.0017035408137
 20
-768.46139063591909
 30
0.0
 11
1331.0017035408137
 21
-760.46139063591909
 31
0.0
  0
LINE
  5
366
100
AcDbEntity
  8
0
  6
CONTINUOUS
 62
               3
100
AcDbLine
 10
1336.0017035408137
 20
-185.96139063591914
 30
0.0
 11
1336.0017035408137
 21
-190.46139063591923
 31
0.0
  0
LINE
  5
367
100
AcDbEntity
  8
0
  6
CONTINUOUS
 62
               3
100
AcDbLine
 10
1286.0017035408137
 20
-185.96139063591914
 30
0.0
 11
1286.0017035408137
 21
-190.46139063591923
 31
0.0
  0
LINE
  5
368
100
AcDbEntity
  8
0
  6
CONTINUOUS
 62
               3
100
AcDbLine
 10
751.00170354081365
 20
-220.4613906359192
 30
0.0
 11
1261.0017035408137
 21
-220.4613906359192
 31
0.0
  0
LINE
  5
369
100
AcDbEntity
  8
0
  6
CONTINUOUS
 62
               3
100
AcDbLine
 10
751.00170354081365
 20
-295.4613906359192
 30
0.0
 11
1261.0017035408137
 21
-295.4613906359192
 31
0.0
  0
LINE
  5
36A
100
AcDbEntity
  8
0
  6
CONTINUOUS
 62
               3
100
AcDbLine
 10
751.00170354081365
 20
-602.46139063591932
 30
0.0
 11
1261.0017035408137
 21
-602.46139063591932
 31
0.0
  0
LINE
  5
36B
100
AcDbEntity
  8
0
  6
CONTINUOUS
 62
               3
100
AcDbLine
 10
751.00170354081365
 20
-677.46139063591932
 30
0.0
 11
1261.0017035408137
 21
-677.46139063591932
 31
0.0
  0
LINE
  5
36C
100
AcDbEntity
  8
0
  6
CONTINUOUS
 62
               3
100
AcDbLine
 10
-278.99829645918635
 20
-768.46139063591909
 30
0.0
 11
-278.99829645918635
 21
-777.46139063591909
 31
0.0
  0
LINE
  5
36D
100
AcDbEntity
  8
0
  6
CONTINUOUS
 62
               3
100
AcDbLine
 10
-278.99829645918635
 20
-777.46139063591909
 30
0.0
 11
-338.99829645918635
 21
-777.46139063591909
 31
0.0
  0
LINE
  5
36E
100
AcDbEntity
  8
0
  6
CONTINUOUS
 62
               3
100
AcDbLine
 10
-338.99829645918635
 20
-777.46139063591909
 30
0.0
 11
-338.99829645918635
 21
-768.46139063591909
 31
0.0
  0
LINE
  5
36F
100
AcDbEntity
  8
0
  6
CONTINUOUS
 62
               3
100
AcDbLine
 10
-1198.9982964591863
 20
-768.46139063591909
 30
0.0
 11
-1198.9982964591863
 21
-777.46139063591909
 31
0.0
  0
LINE
  5
370
100
AcDbEntity
  8
0
  6
CONTINUOUS
 62
               3
100
AcDbLine
 10
-1198.9982964591863
 20
-777.46139063591909
 30
0.0
 11
-1138.9982964591863
 21
-777.46139063591909
 31
0.0
  0
LINE
  5
371
100
AcDbEntity
  8
0
  6
CONTINUOUS
 62
               3
100
AcDbLine
 10
-1138.9982964591863
 20
-777.46139063591909
 30
0.0
 11
-1138.9982964591863
 21
-768.46139063591909
 31
0.0
  0
LINE
  5
372
100
AcDbEntity
  8
0
  6
CONTINUOUS
 62
               3
100
AcDbLine
 10
731.00170354081365
 20
-768.46139063591909
 30
0.0
 11
731.00170354081365
 21
-777.46139063591909
 31
0.0
  0
LINE
  5
373
100
AcDbEntity
  8
0
  6
CONTINUOUS
 62
               3
100
AcDbLine
 10
731.00170354081365
 20
-777.46139063591909
 30
0.0
 11
671.00170354081365
 21
-777.46139063591909
 31
0.0
  0
LINE
  5
374
100
AcDbEntity
  8
0
  6
CONTINUOUS
 62
               3
100
AcDbLine
 10
671.00170354081365
 20
-777.46139063591909
 30
0.0
 11
671.00170354081365
 21
-768.46139063591909
 31
0.0
  0
LINE
  5
375
100
AcDbEntity
  8
0
  6
CONTINUOUS
 62
               3
100
AcDbLine
 10
1281.0017035408137
 20
-768.46139063591909
 30
0.0
 11
1281.0017035408137
 21
-777.46139063591909
 31
0.0
  0
LINE
  5
376
100
AcDbEntity
  8
0
  6
CONTINUOUS
 62
               3
100
AcDbLine
 10
1281.0017035408137
 20
-777.46139063591909
 30
0.0
 11
1341.0017035408137
 21
-777.46139063591909
 31
0.0
  0
LINE
  5
377
100
AcDbEntity
  8
0
  6
CONTINUOUS
 62
               3
100
AcDbLine
 10
1341.0017035408137
 20
-777.46139063591909
 30
0.0
 11
1341.0017035408137
 21
-768.46139063591909
 31
0.0
  0
LINE
  5
378
100
AcDbEntity
  8
0
  6
CONTINUOUS
 62
               3
100
AcDbLine
 10
803.50170354081274
 20
-684.46139063591943
 30
0.0
 11
853.50170354081274
 21
-684.46139063591943
 31
0.0
  0
LINE
  5
379
100
AcDbEntity
  8
0
  6
CONTINUOUS
 62
               3
100
AcDbLine
 10
793.50170354081274
 20
-677.46139063591943
 30
0.0
 11
793.50170354081274
 21
-679.96139063591943
 31
0.0
  0
LINE
  5
37A
100
AcDbEntity
  8
0
  6
CONTINUOUS
 62
               3
100
AcDbLine
 10
793.50170354081274
 20
-679.96139063591943
 30
0.0
 11
863.50170354081274
 21
-679.96139063591943
 31
0.0
  0
LINE
  5
37B
100
AcDbEntity
  8
0
  6
CONTINUOUS
 62
               3
100
AcDbLine
 10
863.50170354081274
 20
-677.46139063591943
 30
0.0
 11
863.50170354081274
 21
-679.96139063591943
 31
0.0
  0
LINE
  5
37C
100
AcDbEntity
  8
0
  6
CONTINUOUS
 62
               3
100
AcDbLine
 10
803.50170354081274
 20
-686.46139063591943
 30
0.0
 11
853.50170354081274
 21
-686.46139063591943
 31
0.0
  0
CIRCLE
  5
37D
100
AcDbEntity
  8
0
  6
CONTINUOUS
 62
               3
100
AcDbCircle
 10
800.50170354081274
 20
-732.96139063591943
 30
0.0
 40
6.0
  0
LINE
  5
37E
100
AcDbEntity
  8
0
  6
CONTINUOUS
 62
               3
100
AcDbLine
 10
806.50170354081274
 20
-687.46139063591943
 30
0.0
 11
850.50170354081274
 21
-687.46139063591943
 31
0.0
  0
LINE
  5
37F
100
AcDbEntity
  8
0
  6
CONTINUOUS
 62
               3
100
AcDbLine
 10
853.50170354081274
 20
-684.46139063591943
 30
0.0
 11
853.50170354081274
 21
-686.46139063591943
 31
0.0
  0
LINE
  5
380
100
AcDbEntity
  8
0
  6
CONTINUOUS
 62
               3
100
AcDbLine
 10
853.50170354081274
 20
-690.46139063591943
 30
0.0
 11
853.50170354081274
 21
-697.46139063591943
 31
0.0
  0
LINE
  5
381
100
AcDbEntity
  8
0
  6
CONTINUOUS
 62
               3
100
AcDbLine
 10
803.50170354081274
 20
-686.46139063591943
 30
0.0
 11
803.50170354081274
 21
-684.46139063591943
 31
0.0
  0
LINE
  5
382
100
AcDbEntity
  8
0
  6
CONTINUOUS
 62
               3
100
AcDbLine
 10
835.52600999762217
 20
-701.84461779823016
 30
0.0
 11
810.01630225393637
 21
-739.42067939926199
 31
0.0
  0
LINE
  5
383
100
AcDbEntity
  8
0
  6
CONTINUOUS
 62
               3
100
AcDbLine
 10
843.79957409598956
 20
-697.46139063591943
 30
0.0
 11
853.50170354081274
 21
-697.46139063591943
 31
0.0
  0
ARC
  5
384
100
AcDbEntity
  8
0
  6
CONTINUOUS
 62
               3
100
AcDbCircle
 10
800.50170354081274
 20
-732.96139063591943
 30
0.0
 40
11.499999999999998
100
AcDbArc
 50
169.22655536288474
 51
325.82812736515035
  0
ARC
  5
385
100
AcDbEntity
  8
0
  6
CONTINUOUS
 62
               3
100
AcDbCircle
 10
843.79957409598956
 20
-707.46139063591943
 30
0.0
 40
10.0
100
AcDbArc
 50
89.999999999999801
 51
145.82812736515081
  0
LINE
  5
386
100
AcDbEntity
  8
0
  6
CONTINUOUS
 62
               3
100
AcDbLine
 10
797.96889962868772
 20
-692.46139063591943
 30
0.0
 11
801.50170354081274
 21
-692.46139063591943
 31
0.0
  0
LINE
  5
387
100
AcDbEntity
  8
0
  6
CONTINUOUS
 62
               3
100
AcDbLine
 10
793.0004728351023
 20
-696.90037798295884
 30
0.0
 11
789.07432191556654
 21
-731.67106153411021
 31
0.0
  0
ARC
  5
388
100
AcDbEntity
  8
0
  6
CONTINUOUS
 62
               3
100
AcDbCircle
 10
797.96889962868772
 20
-697.46139063591943
 30
0.0
 40
5.0
100
AcDbArc
 50
89.999999999999801
 51
173.55770256345428
  0
ARC
  5
389
100
AcDbEntity
  8
0
  6
CONTINUOUS
 62
               3
100
AcDbCircle
 10
806.50170354081274
 20
-690.46139063591943
 30
0.0
 40
3.0
100
AcDbArc
 50
89.999999999999801
 51
179.9999999999996
  0
ARC
  5
38A
100
AcDbEntity
  8
0
  6
CONTINUOUS
 62
               3
100
AcDbCircle
 10
850.50170354081274
 20
-690.46139063591943
 30
0.0
 40
3.0
100
AcDbArc
 50
0.0
 51
89.999999999999801
  0
ARC
  5
38B
100
AcDbEntity
  8
0
  6
CONTINUOUS
 62
               3
100
AcDbCircle
 10
801.50170354081274
 20
-690.46139063591943
 30
0.0
 40
2.0
100
AcDbArc
 50
269.99999999999937
 51
359.9999999999992
  0
ARC
  5
38C
100
AcDbEntity
  8
0
  6
CONTINUOUS
 62
               3
100
AcDbCircle
 10
800.50170354081274
 20
-732.96139063591943
 30
0.0
 40
37.5
100
AcDbArc
 50
101.33296386000954
 51
397.96966466674291
  0
ARC
  5
38D
100
AcDbEntity
  8
0
  6
CONTINUOUS
 62
               3
100
AcDbCircle
 10
806.50170354081274
 20
-680.46139063591943
 30
0.0
 40
3.0
100
AcDbArc
 50
179.9999999999996
 51
269.99999999999937
  0
LINE
  5
38E
100
AcDbEntity
  8
0
  6
CONTINUOUS
 62
               3
100
AcDbLine
 10
806.50170354081274
 20
-683.46139063591943
 30
0.0
 11
850.50170354081274
 21
-683.46139063591943
 31
0.0
  0
ARC
  5
38F
100
AcDbEntity
  8
0
  6
CONTINUOUS
 62
               3
100
AcDbCircle
 10
850.50170354081274
 20
-680.46139063591943
 30
0.0
 40
3.0
100
AcDbArc
 50
269.99999999999937
 51
359.9999999999992
  0
LINE
  5
390
100
AcDbEntity
  8
0
  6
CONTINUOUS
 62
               3
100
AcDbLine
 10
853.50170354081274
 20
-679.96139063591943
 30
0.0
 11
853.50170354081274
 21
-680.46139063591943
 31
0.0
  0
LINE
  5
391
100
AcDbEntity
  8
0
  6
CONTINUOUS
 62
               3
100
AcDbLine
 10
803.50170354081274
 20
-679.96139063591943
 30
0.0
 11
803.50170354081274
 21
-680.46139063591943
 31
0.0
  0
ARC
  5
392
100
AcDbEntity
  8
0
  6
CONTINUOUS
 62
               3
100
AcDbCircle
 10
800.50170354081274
 20
-732.96139063591943
 30
0.0
 40
27.5
100
AcDbArc
 50
108.27755374636496
 51
391.10827618223965
  0
CIRCLE
  5
393
100
AcDbEntity
  8
0
  6
CONTINUOUS
 62
               4
100
AcDbCircle
 10
-338.99829645918635
 20
962.53860936408091
 30
0.0
 40
2.5
  0
CIRCLE
  5
394
100
AcDbEntity
  8
0
  6
CONTINUOUS
 62
               4
100
AcDbCircle
 10
-1138.9982964591863
 20
962.53860936408091
 30
0.0
 40
2.5
  0
CIRCLE
  5
395
100
AcDbEntity
  8
0
  6
CONTINUOUS
 62
               4
100
AcDbCircle
 10
-213.99829645918635
 20
887.5386093640808
 30
0.0
 40
2.5
  0
CIRCLE
  5
396
100
AcDbEntity
  8
0
  6
CONTINUOUS
 62
               4
100
AcDbCircle
 10
-213.99829645918635
 20
237.53860936408097
 30
0.0
 40
2.5
  0
CIRCLE
  5
397
100
AcDbEntity
  8
0
  6
CONTINUOUS
 62
               4
100
AcDbCircle
 10
-1263.9982964591863
 20
887.53860936408103
 30
0.0
 40
2.5
  0
CIRCLE
  5
398
100
AcDbEntity
  8
0
  6
CONTINUOUS
 62
               4
100
AcDbCircle
 10
-1263.9982964591868
 20
237.53860936408114
 30
0.0
 40
2.5
  0
LINE
  5
399
100
AcDbEntity
  8
0
  6
CONTINUOUS
 62
               4
100
AcDbLine
 10
-1238.9982964591863
 20
-62.461390635919088
 30
0.0
 11
-238.99829645918635
 21
-62.461390635919088
 31
0.0
  0
LINE
  5
39A
100
AcDbEntity
  8
0
  6
CONTINUOUS
 62
               4
100
AcDbLine
 10
631.00170354081365
 20
-62.461390635919088
 30
0.0
 11
1381.0017035408137
 21
-62.461390635919088
 31
0.0
  0
LINE
  5
39B
100
AcDbEntity
  8
0
  6
CONTINUOUS
 62
               4
100
AcDbLine
 10
692.10170354081367
 20
-748.46139063591909
 30
0.0
 11
692.10170354081367
 21
-708.4613906359192
 31
0.0
  0
LINE
  5
39C
100
AcDbEntity
  8
0
  6
CONTINUOUS
 62
               4
100
AcDbLine
 10
709.90170354081363
 20
-748.46139063591909
 30
0.0
 11
709.90170354081363
 21
-708.4613906359192
 31
0.0
  0
LINE
  5
39D
100
AcDbEntity
  8
0
  6
CONTINUOUS
 62
               4
100
AcDbLine
 10
1302.1017035408136
 20
-748.46139063591909
 30
0.0
 11
1302.1017035408136
 21
-708.4613906359192
 31
0.0
  0
LINE
  5
39E
100
AcDbEntity
  8
0
  6
CONTINUOUS
 62
               4
100
AcDbLine
 10
1319.9017035408137
 20
-748.46139063591909
 30
0.0
 11
1319.9017035408137
 21
-708.4613906359192
 31
0.0
  0
LINE
  5
39F
100
AcDbEntity
  8
0
  6
CONTINUOUS
 62
               4
100
AcDbLine
 10
-317.89829645918633
 20
-748.46139063591909
 30
0.0
 11
-317.89829645918633
 21
-708.4613906359192
 31
0.0
  0
LINE
  5
3A0
100
AcDbEntity
  8
0
  6
CONTINUOUS
 62
               4
100
AcDbLine
 10
-300.09829645918637
 20
-748.46139063591909
 30
0.0
 11
-300.09829645918637
 21
-708.4613906359192
 31
0.0
  0
LINE
  5
3A1
100
AcDbEntity
  8
0
  6
CONTINUOUS
 62
               4
100
AcDbLine
 10
-1177.8982964591864
 20
-748.46139063591909
 30
0.0
 11
-1177.8982964591864
 21
-708.4613906359192
 31
0.0
  0
LINE
  5
3A2
100
AcDbEntity
  8
0
  6
CONTINUOUS
 62
               4
100
AcDbLine
 10
-1160.0982964591863
 20
-748.46139063591909
 30
0.0
 11
-1160.0982964591863
 21
-708.4613906359192
 31
0.0
  0
LINE
  5
3A3
100
AcDbEntity
  8
0
  6
DASHED2
 62
               4
100
AcDbLine
 10
-226.99829645918635
 20
-69.461390635919145
 30
0.0
 11
-226.99829645918635
 21
-185.96139063591914
 31
0.0
  0
LINE
  5
3A4
100
AcDbEntity
  8
0
  6
DASHED2
 62
               4
100
AcDbLine
 10
619.00170354081365
 20
-69.461390635919145
 30
0.0
 11
619.00170354081365
 21
-185.96139063591914
 31
0.0
  0
LINE
  5
3A5
100
AcDbEntity
  8
0
  6
DASHED2
 62
               4
100
AcDbLine
 10
1393.0017035408137
 20
-69.461390635919145
 30
0.0
 11
1393.0017035408137
 21
-185.96139063591914
 31
0.0
  0
LINE
  5
3A6
100
AcDbEntity
  8
0
  6
DASHED2
 62
               4
100
AcDbLine
 10
549.00170354081365
 20
-134.46139063591914
 30
0.0
 11
619.00170354081365
 21
-134.46139063591914
 31
0.0
  0
LINE
  5
3A7
100
AcDbEntity
  8
0
  6
DASHED2
 62
               4
100
AcDbLine
 10
-1250.9982964591863
 20
-69.461390635919145
 30
0.0
 11
-1250.9982964591863
 21
-185.96139063591914
 31
0.0
  0
LINE
  5
3A8
100
AcDbEntity
  8
0
  6
DASHED2
 62
               4
100
AcDbLine
 10
-346.49829645918635
 20
-220.4613906359192
 30
0.0
 11
-271.49829645918635
 21
-220.4613906359192
 31
0.0
  0
LINE
  5
3A9
100
AcDbEntity
  8
0
  6
DASHED2
 62
               4
100
AcDbLine
 10
-271.49829645918635
 20
-295.4613906359192
 30
0.0
 11
-346.49829645918635
 21
-295.4613906359192
 31
0.0
  0
LINE
  5
3AA
100
AcDbEntity
  8
0
  6
DASHED2
 62
               4
100
AcDbLine
 10
-346.49829645918635
 20
-295.4613906359192
 30
0.0
 11
-346.49829645918635
 21
-220.4613906359192
 31
0.0
  0
LINE
  5
3AB
100
AcDbEntity
  8
0
  6
DASHED2
 62
               4
100
AcDbLine
 10
-271.49829645918635
 20
-220.4613906359192
 30
0.0
 11
-271.49829645918635
 21
-295.4613906359192
 31
0.0
  0
LINE
  5
3AC
100
AcDbEntity
  8
0
  6
DASHED2
 62
               4
100
AcDbLine
 10
-271.49829645918635
 20
-602.46139063591932
 30
0.0
 11
-346.49829645918635
 21
-602.46139063591909
 31
0.0
  0
LINE
  5
3AD
100
AcDbEntity
  8
0
  6
DASHED2
 62
               4
100
AcDbLine
 10
-346.49829645918635
 20
-677.46139063591909
 30
0.0
 11
-271.49829645918635
 21
-677.46139063591932
 31
0.0
  0
LINE
  5
3AE
100
AcDbEntity
  8
0
  6
DASHED2
 62
               4
100
AcDbLine
 10
-271.49829645918635
 20
-677.46139063591932
 30
0.0
 11
-271.49829645918635
 21
-602.46139063591932
 31
0.0
  0
LINE
  5
3AF
100
AcDbEntity
  8
0
  6
DASHED2
 62
               4
100
AcDbLine
 10
-346.49829645918635
 20
-602.46139063591909
 30
0.0
 11
-346.49829645918635
 21
-677.46139063591909
 31
0.0
  0
LINE
  5
3B0
100
AcDbEntity
  8
0
  6
DASHED2
 62
               4
100
AcDbLine
 10
-1206.4982964591863
 20
-602.46139063591932
 30
0.0
 11
-1131.4982964591863
 21
-602.46139063591909
 31
0.0
  0
LINE
  5
3B1
100
AcDbEntity
  8
0
  6
DASHED2
 62
               4
100
AcDbLine
 10
-1131.4982964591863
 20
-677.46139063591909
 30
0.0
 11
-1206.4982964591863
 21
-677.46139063591932
 31
0.0
  0
LINE
  5
3B2
100
AcDbEntity
  8
0
  6
DASHED2
 62
               4
100
AcDbLine
 10
-1206.4982964591863
 20
-677.46139063591932
 30
0.0
 11
-1206.4982964591863
 21
-602.46139063591932
 31
0.0
  0
LINE
  5
3B3
100
AcDbEntity
  8
0
  6
DASHED2
 62
               4
100
AcDbLine
 10
-1131.4982964591863
 20
-602.46139063591909
 30
0.0
 11
-1131.4982964591863
 21
-677.46139063591909
 31
0.0
  0
LINE
  5
3B4
100
AcDbEntity
  8
0
  6
DASHED2
 62
               4
100
AcDbLine
 10
-1131.4982964591863
 20
-220.4613906359192
 30
0.0
 11
-1206.4982964591863
 21
-220.4613906359192
 31
0.0
  0
LINE
  5
3B5
100
AcDbEntity
  8
0
  6
DASHED2
 62
               4
100
AcDbLine
 10
-1206.4982964591863
 20
-295.4613906359192
 30
0.0
 11
-1131.4982964591863
 21
-295.4613906359192
 31
0.0
  0
LINE
  5
3B6
100
AcDbEntity
  8
0
  6
DASHED2
 62
               4
100
AcDbLine
 10
-1131.4982964591863
 20
-295.4613906359192
 30
0.0
 11
-1131.4982964591863
 21
-220.4613906359192
 31
0.0
  0
LINE
  5
3B7
100
AcDbEntity
  8
0
  6
DASHED2
 62
               4
100
AcDbLine
 10
-1206.4982964591863
 20
-220.4613906359192
 30
0.0
 11
-1206.4982964591863
 21
-295.4613906359192
 31
0.0
  0
LINE
  5
3B8
100
AcDbEntity
  8
0
  6
DASHED2
 62
               4
100
AcDbLine
 10
968.50170354081365
 20
-295.4613906359192
 30
0.0
 11
968.50170354081365
 21
-220.4613906359192
 31
0.0
  0
LINE
  5
3B9
100
AcDbEntity
  8
0
  6
DASHED2
 62
               4
100
AcDbLine
 10
1043.5017035408137
 20
-220.4613906359192
 30
0.0
 11
1043.5017035408137
 21
-295.4613906359192
 31
0.0
  0
LINE
  5
3BA
100
AcDbEntity
  8
0
  6
DASHED2
 62
               4
100
AcDbLine
 10
1043.5017035408137
 20
-677.46139063591932
 30
0.0
 11
1043.5017035408137
 21
-602.46139063591932
 31
0.0
  0
LINE
  5
3BB
100
AcDbEntity
  8
0
  6
DASHED2
 62
               4
100
AcDbLine
 10
968.50170354081365
 20
-602.46139063591909
 30
0.0
 11
968.50170354081365
 21
-677.46139063591909
 31
0.0
  0
LINE
  5
3BC
100
AcDbEntity
  8
0
  6
DASHED2
 62
               4
100
AcDbLine
 10
1348.5017035408137
 20
-220.4613906359192
 30
0.0
 11
1273.5017035408137
 21
-220.4613906359192
 31
0.0
  0
LINE
  5
3BD
100
AcDbEntity
  8
0
  6
DASHED2
 62
               4
100
AcDbLine
 10
1273.5017035408137
 20
-295.4613906359192
 30
0.0
 11
1348.5017035408137
 21
-295.4613906359192
 31
0.0
  0
LINE
  5
3BE
100
AcDbEntity
  8
0
  6
DASHED2
 62
               4
100
AcDbLine
 10
1348.5017035408137
 20
-295.4613906359192
 30
0.0
 11
1348.5017035408137
 21
-220.4613906359192
 31
0.0
  0
LINE
  5
3BF
100
AcDbEntity
  8
0
  6
DASHED2
 62
               4
100
AcDbLine
 10
1273.5017035408137
 20
-220.4613906359192
 30
0.0
 11
1273.5017035408137
 21
-295.4613906359192
 31
0.0
  0
LINE
  5
3C0
100
AcDbEntity
  8
0
  6
DASHED2
 62
               4
100
AcDbLine
 10
1273.5017035408137
 20
-602.46139063591932
 30
0.0
 11
1348.5017035408137
 21
-602.46139063591909
 31
0.0
  0
LINE
  5
3C1
100
AcDbEntity
  8
0
  6
DASHED2
 62
               4
100
AcDbLine
 10
1348.5017035408137
 20
-677.46139063591909
 30
0.0
 11
1273.5017035408137
 21
-677.46139063591932
 31
0.0
  0
LINE
  5
3C2
100
AcDbEntity
  8
0
  6
DASHED2
 62
               4
100
AcDbLine
 10
1273.5017035408137
 20
-677.46139063591932
 30
0.0
 11
1273.5017035408137
 21
-602.46139063591932
 31
0.0
  0
LINE
  5
3C3
100
AcDbEntity
  8
0
  6
DASHED2
 62
               4
100
AcDbLine
 10
1348.5017035408137
 20
-602.46139063591909
 30
0.0
 11
1348.5017035408137
 21
-677.46139063591909
 31
0.0
  0
CIRCLE
  5
3C4
100
AcDbEntity
  8
LAYER016
  6
CONTINUOUS
 62
              60
100
AcDbCircle
 10
-1213.9982964591863
 20
812.53860936408114
 30
0.0
 40
3.0
  0
CIRCLE
  5
3C5
100
AcDbEntity
  8
LAYER016
  6
CONTINUOUS
 62
              60
100
AcDbCircle
 10
-1163.9982964591863
 20
862.53860936408114
 30
0.0
 40
3.0
  0
CIRCLE
  5
3C6
100
AcDbEntity
  8
LAYER016
  6
CONTINUOUS
 62
              60
100
AcDbCircle
 10
-1213.9982964591863
 20
862.53860936408114
 30
0.0
 40
3.0
  0
CIRCLE
  5
3C7
100
AcDbEntity
  8
LAYER016
  6
CONTINUOUS
 62
              60
100
AcDbCircle
 10
-1113.9982964591863
 20
912.53860936408114
 30
0.0
 40
3.0
  0
CIRCLE
  5
3C8
100
AcDbEntity
  8
LAYER016
  6
CONTINUOUS
 62
              60
100
AcDbCircle
 10
-1163.9982964591863
 20
912.53860936408114
 30
0.0
 40
3.0
  0
CIRCLE
  5
3C9
100
AcDbEntity
  8
LAYER016
  6
CONTINUOUS
 62
              60
100
AcDbCircle
 10
-1213.9982964591863
 20
912.53860936408114
 30
0.0
 40
3.0
  0
CIRCLE
  5
3CA
100
AcDbEntity
  8
LAYER016
  6
CONTINUOUS
 62
              60
100
AcDbCircle
 10
-713.99829645918635
 20
412.53860936408114
 30
0.0
 40
3.0
  0
CIRCLE
  5
3CB
100
AcDbEntity
  8
LAYER016
  6
CONTINUOUS
 62
              60
100
AcDbCircle
 10
-663.99829645918635
 20
462.53860936408114
 30
0.0
 40
3.0
  0
CIRCLE
  5
3CC
100
AcDbEntity
  8
LAYER016
  6
CONTINUOUS
 62
              60
100
AcDbCircle
 10
-713.99829645918635
 20
462.53860936408114
 30
0.0
 40
3.0
  0
CIRCLE
  5
3CD
100
AcDbEntity
  8
LAYER016
  6
CONTINUOUS
 62
              60
100
AcDbCircle
 10
-613.99829645918635
 20
512.53860936408114
 30
0.0
 40
3.0
  0
CIRCLE
  5
3CE
100
AcDbEntity
  8
LAYER016
  6
CONTINUOUS
 62
              60
100
AcDbCircle
 10
-663.99829645918635
 20
512.53860936408114
 30
0.0
 40
3.0
  0
CIRCLE
  5
3CF
100
AcDbEntity
  8
LAYER016
  6
CONTINUOUS
 62
              60
100
AcDbCircle
 10
-713.99829645918635
 20
512.53860936408114
 30
0.0
 40
3.0
  0
CIRCLE
  5
3D0
100
AcDbEntity
  8
LAYER016
  6
CONTINUOUS
 62
              60
100
AcDbCircle
 10
-713.99829645918646
 20
662.5386093640808
 30
0.0
 40
3.0
  0
CIRCLE
  5
3D1
100
AcDbEntity
  8
LAYER016
  6
CONTINUOUS
 62
              60
100
AcDbCircle
 10
-663.99829645918646
 20
612.5386093640808
 30
0.0
 40
3.0
  0
CIRCLE
  5
3D2
100
AcDbEntity
  8
LAYER016
  6
CONTINUOUS
 62
              60
100
AcDbCircle
 10
-713.99829645918646
 20
612.5386093640808
 30
0.0
 40
3.0
  0
CIRCLE
  5
3D3
100
AcDbEntity
  8
LAYER016
  6
CONTINUOUS
 62
              60
100
AcDbCircle
 10
-613.99829645918646
 20
562.5386093640808
 30
0.0
 40
3.0
  0
CIRCLE
  5
3D4
100
AcDbEntity
  8
LAYER016
  6
CONTINUOUS
 62
              60
100
AcDbCircle
 10
-663.99829645918646
 20
562.5386093640808
 30
0.0
 40
3.0
  0
CIRCLE
  5
3D5
100
AcDbEntity
  8
LAYER016
  6
CONTINUOUS
 62
              60
100
AcDbCircle
 10
-713.99829645918646
 20
562.5386093640808
 30
0.0
 40
3.0
  0
CIRCLE
  5
3D6
100
AcDbEntity
  8
LAYER016
  6
CONTINUOUS
 62
              60
100
AcDbCircle
 10
-763.99829645918737
 20
412.53860936408125
 30
0.0
 40
3.0
  0
CIRCLE
  5
3D7
100
AcDbEntity
  8
LAYER016
  6
CONTINUOUS
 62
              60
100
AcDbCircle
 10
-813.99829645918726
 20
462.53860936408137
 30
0.0
 40
3.0
  0
CIRCLE
  5
3D8
100
AcDbEntity
  8
LAYER016
  6
CONTINUOUS
 62
              60
100
AcDbCircle
 10
-763.99829645918726
 20
462.53860936408125
 30
0.0
 40
3.0
  0
CIRCLE
  5
3D9
100
AcDbEntity
  8
LAYER016
  6
CONTINUOUS
 62
              60
100
AcDbCircle
 10
-863.99829645918715
 20
512.53860936408148
 30
0.0
 40
3.0
  0
CIRCLE
  5
3DA
100
AcDbEntity
  8
LAYER016
  6
CONTINUOUS
 62
              60
100
AcDbCircle
 10
-813.99829645918715
 20
512.53860936408137
 30
0.0
 40
3.0
  0
CIRCLE
  5
3DB
100
AcDbEntity
  8
LAYER016
  6
CONTINUOUS
 62
              60
100
AcDbCircle
 10
-763.99829645918715
 20
512.53860936408125
 30
0.0
 40
3.0
  0
CIRCLE
  5
3DC
100
AcDbEntity
  8
LAYER016
  6
CONTINUOUS
 62
              60
100
AcDbCircle
 10
-763.9982964591868
 20
662.53860936408091
 30
0.0
 40
3.0
  0
CIRCLE
  5
3DD
100
AcDbEntity
  8
LAYER016
  6
CONTINUOUS
 62
              60
100
AcDbCircle
 10
-813.99829645918692
 20
612.53860936408103
 30
0.0
 40
3.0
  0
CIRCLE
  5
3DE
100
AcDbEntity
  8
LAYER016
  6
CONTINUOUS
 62
              60
100
AcDbCircle
 10
-763.99829645918692
 20
612.53860936408091
 30
0.0
 40
3.0
  0
CIRCLE
  5
3DF
100
AcDbEntity
  8
LAYER016
  6
CONTINUOUS
 62
              60
100
AcDbCircle
 10
-863.99829645918692
 20
562.53860936408114
 30
0.0
 40
3.0
  0
CIRCLE
  5
3E0
100
AcDbEntity
  8
LAYER016
  6
CONTINUOUS
 62
              60
100
AcDbCircle
 10
-813.99829645918692
 20
562.53860936408103
 30
0.0
 40
3.0
  0
CIRCLE
  5
3E1
100
AcDbEntity
  8
LAYER016
  6
CONTINUOUS
 62
              60
100
AcDbCircle
 10
-763.99829645918692
 20
562.53860936408091
 30
0.0
 40
3.0
  0
CIRCLE
  5
3E2
100
AcDbEntity
  8
LAYER016
  6
CONTINUOUS
 62
              60
100
AcDbCircle
 10
-1213.9982964591863
 20
312.5386093640808
 30
0.0
 40
3.0
  0
CIRCLE
  5
3E3
100
AcDbEntity
  8
LAYER016
  6
CONTINUOUS
 62
              60
100
AcDbCircle
 10
-1163.9982964591863
 20
262.5386093640808
 30
0.0
 40
3.0
  0
CIRCLE
  5
3E4
100
AcDbEntity
  8
LAYER016
  6
CONTINUOUS
 62
              60
100
AcDbCircle
 10
-1213.9982964591863
 20
262.5386093640808
 30
0.0
 40
3.0
  0
CIRCLE
  5
3E5
100
AcDbEntity
  8
LAYER016
  6
CONTINUOUS
 62
              60
100
AcDbCircle
 10
-1113.9982964591863
 20
212.5386093640808
 30
0.0
 40
3.0
  0
CIRCLE
  5
3E6
100
AcDbEntity
  8
LAYER016
  6
CONTINUOUS
 62
              60
100
AcDbCircle
 10
-1163.9982964591863
 20
212.5386093640808
 30
0.0
 40
3.0
  0
CIRCLE
  5
3E7
100
AcDbEntity
  8
LAYER016
  6
CONTINUOUS
 62
              60
100
AcDbCircle
 10
-1213.9982964591863
 20
212.5386093640808
 30
0.0
 40
3.0
  0
CIRCLE
  5
3E8
100
AcDbEntity
  8
LAYER016
  6
CONTINUOUS
 62
              60
100
AcDbCircle
 10
-263.99829645918658
 20
812.53860936408023
 30
0.0
 40
3.0
  0
CIRCLE
  5
3E9
100
AcDbEntity
  8
LAYER016
  6
CONTINUOUS
 62
              60
100
AcDbCircle
 10
-313.99829645918658
 20
862.53860936408034
 30
0.0
 40
3.0
  0
CIRCLE
  5
3EA
100
AcDbEntity
  8
LAYER016
  6
CONTINUOUS
 62
              60
100
AcDbCircle
 10
-263.99829645918658
 20
862.53860936408023
 30
0.0
 40
3.0
  0
CIRCLE
  5
3EB
100
AcDbEntity
  8
LAYER016
  6
CONTINUOUS
 62
              60
100
AcDbCircle
 10
-363.99829645918635
 20
912.53860936408046
 30
0.0
 40
3.0
  0
CIRCLE
  5
3EC
100
AcDbEntity
  8
LAYER016
  6
CONTINUOUS
 62
              60
100
AcDbCircle
 10
-313.99829645918635
 20
912.53860936408034
 30
0.0
 40
3.0
  0
CIRCLE
  5
3ED
100
AcDbEntity
  8
LAYER016
  6
CONTINUOUS
 62
              60
100
AcDbCircle
 10
-263.99829645918635
 20
912.53860936408023
 30
0.0
 40
3.0
  0
CIRCLE
  5
3EE
100
AcDbEntity
  8
LAYER016
  6
CONTINUOUS
 62
              60
100
AcDbCircle
 10
-263.99829645918749
 20
312.53860936407995
 30
0.0
 40
3.0
  0
CIRCLE
  5
3EF
100
AcDbEntity
  8
LAYER016
  6
CONTINUOUS
 62
              60
100
AcDbCircle
 10
-313.99829645918771
 20
262.53860936408006
 30
0.0
 40
3.0
  0
CIRCLE
  5
3F0
100
AcDbEntity
  8
LAYER016
  6
CONTINUOUS
 62
              60
100
AcDbCircle
 10
-263.99829645918771
 20
262.53860936407995
 30
0.0
 40
3.0
  0
CIRCLE
  5
3F1
100
AcDbEntity
  8
LAYER016
  6
CONTINUOUS
 62
              60
100
AcDbCircle
 10
-363.99829645918771
 20
212.53860936408014
 30
0.0
 40
3.0
  0
CIRCLE
  5
3F2
100
AcDbEntity
  8
LAYER016
  6
CONTINUOUS
 62
              60
100
AcDbCircle
 10
-313.99829645918771
 20
212.53860936408003
 30
0.0
 40
3.0
  0
CIRCLE
  5
3F3
100
AcDbEntity
  8
LAYER016
  6
CONTINUOUS
 62
              60
100
AcDbCircle
 10
-263.99829645918771
 20
212.53860936407995
 30
0.0
 40
3.0
  0
LINE
  5
3F4
100
AcDbEntity
  8
LAYER032
  6
CONTINUOUS
 62
             150
100
AcDbLine
 10
-746.50335539311345
 20
-141.9601400063456
 30
0.0
 11
-746.50335539311345
 21
-144.9601400063456
 31
0.0
  0
LINE
  5
3F5
100
AcDbEntity
  8
LAYER032
  6
CONTINUOUS
 62
             150
100
AcDbLine
 10
-676.50335539311345
 20
-141.9601400063456
 30
0.0
 11
-746.50335539311345
 21
-141.9601400063456
 31
0.0
  0
LINE
  5
3F6
100
AcDbEntity
  8
LAYER032
  6
CONTINUOUS
 62
             150
100
AcDbLine
 10
-746.50335539311345
 20
-144.9601400063456
 30
0.0
 11
-676.50335539311345
 21
-144.9601400063456
 31
0.0
  0
LINE
  5
3F7
100
AcDbEntity
  8
LAYER032
  6
CONTINUOUS
 62
             150
100
AcDbLine
 10
-676.50335539311345
 20
-141.9601400063456
 30
0.0
 11
-676.50335539311345
 21
-144.9601400063456
 31
0.0
  0
CIRCLE
  5
3F8
100
AcDbEntity
  8
LAYER032
  6
CONTINUOUS
 62
             150
100
AcDbCircle
 10
-678.50335539311345
 20
-150.4601400063456
 30
0.0
 40
1.0
  0
LINE
  5
3F9
100
AcDbEntity
  8
LAYER032
  6
CONTINUOUS
 62
             150
100
AcDbLine
 10
-680.50335539311345
 20
-144.9601400063456
 30
0.0
 11
-680.50335539311345
 21
-150.4601400063456
 31
0.0
  0
ARC
  5
3FA
100
AcDbEntity
  8
LAYER032
  6
CONTINUOUS
 62
             150
100
AcDbCircle
 10
-678.50335539311345
 20
-150.4601400063456
 30
0.0
 40
2.0000000000000204
100
AcDbArc
 50
179.9999999999996
 51
359.9999999999992
  0
LINE
  5
3FB
100
AcDbEntity
  8
LAYER032
  6
CONTINUOUS
 62
             150
100
AcDbLine
 10
-676.50335539311345
 20
-144.9601400063456
 30
0.0
 11
-676.50335539311345
 21
-150.4601400063456
 31
0.0
  0
LINE
  5
3FC
100
AcDbEntity
  8
LAYER032
  6
CONTINUOUS
 62
             150
100
AcDbLine
 10
-680.50335539311345
 20
-149.66014000634553
 30
0.0
 11
-691.60335539311382
 21
-149.66014000634553
 31
0.0
  0
ARC
  5
3FD
100
AcDbEntity
  8
LAYER032
  6
CONTINUOUS
 62
             150
100
AcDbCircle
 10
-694.00335539311345
 20
-151.4601400063456
 30
0.0
 40
3.0
100
AcDbArc
 50
228.18968510422104
 51
396.86989764584359
  0
LINE
  5
3FE
100
AcDbEntity
  8
LAYER032
  6
CONTINUOUS
 62
             150
100
AcDbLine
 10
-680.50335539311345
 20
-148.4601400063456
 30
0.0
 11
-694.00335539311345
 21
-148.4601400063456
 31
0.0
  0
LINE
  5
3FF
100
AcDbEntity
  8
LAYER032
  6
CONTINUOUS
 62
             150
100
AcDbLine
 10
-697.00335539311345
 20
-151.4601400063456
 30
0.0
 11
-697.00335539311345
 21
-162.4601400063456
 31
0.0
  0
LINE
  5
400
100
AcDbEntity
  8
LAYER032
  6
CONTINUOUS
 62
             150
100
AcDbLine
 10
-676.50335539311345
 20
-150.4601400063456
 30
0.0
 11
-676.50335539311345
 21
-162.4601400063456
 31
0.0
  0
LINE
  5
401
100
AcDbEntity
  8
LAYER032
  6
CONTINUOUS
 62
             150
100
AcDbLine
 10
-694.00335539311345
 20
-165.46014000634554
 30
0.0
 11
-679.50335539311345
 21
-165.46014000634554
 31
0.0
  0
LINE
  5
402
100
AcDbEntity
  8
LAYER032
  6
CONTINUOUS
 62
             150
100
AcDbLine
 10
-696.00335539311345
 20
-153.6962079838454
 30
0.0
 11
-696.00335539311345
 21
-162.4601400063456
 31
0.0
  0
ARC
  5
403
100
AcDbEntity
  8
LAYER032
  6
CONTINUOUS
 62
             150
100
AcDbCircle
 10
-694.00335539311345
 20
-162.4601400063456
 30
0.0
 40
2.0
100
AcDbArc
 50
179.9999999999996
 51
269.99999999999937
  0
ARC
  5
404
100
AcDbEntity
  8
LAYER032
  6
CONTINUOUS
 62
             150
100
AcDbCircle
 10
-694.00335539311345
 20
-162.4601400063456
 30
0.0
 40
3.0
100
AcDbArc
 50
179.9999999999996
 51
269.99999999999937
  0
ARC
  5
405
100
AcDbEntity
  8
LAYER032
  6
CONTINUOUS
 62
             150
100
AcDbCircle
 10
-679.50335539311345
 20
-162.4601400063456
 30
0.0
 40
3.0
100
AcDbArc
 50
269.99999999999937
 51
359.9999999999992
  0
LINE
  5
406
100
AcDbEntity
  8
LAYER032
  6
CONTINUOUS
 62
             150
100
AcDbLine
 10
-691.78599251230844
 20
-164.46014000634554
 30
0.0
 11
-691.78599251230844
 21
-153.48085813340847
 31
0.0
  0
LINE
  5
407
100
AcDbEntity
  8
LAYER032
  6
CONTINUOUS
 62
             150
100
AcDbLine
 10
-691.78599251230844
 20
-160.9601400063456
 30
0.0
 11
-682.37194892877324
 21
-160.9601400063456
 31
0.0
  0
LINE
  5
408
100
AcDbEntity
  8
LAYER032
  6
CONTINUOUS
 62
             150
100
AcDbLine
 10
-682.00335539311345
 20
-165.46014000634554
 30
0.0
 11
-682.00335539311345
 21
-167.46014000634554
 31
0.0
  0
LINE
  5
409
100
AcDbEntity
  8
LAYER032
  6
CONTINUOUS
 62
             150
100
AcDbLine
 10
-692.00335539311345
 20
-165.46014000634554
 30
0.0
 11
-692.00335539311345
 21
-167.46014000634554
 31
0.0
  0
LINE
  5
40A
100
AcDbEntity
  8
LAYER032
  6
CONTINUOUS
 62
             150
100
AcDbLine
 10
-692.00335539311345
 20
-167.46014000634554
 30
0.0
 11
-682.00335539311345
 21
-167.46014000634554
 31
0.0
  0
LINE
  5
40B
100
AcDbEntity
  8
LAYER032
  6
CONTINUOUS
 62
             150
100
AcDbLine
 10
-665.20335539311327
 20
-149.7101400063456
 30
0.0
 11
-664.00335539311345
 21
-149.7101400063456
 31
0.0
  0
LINE
  5
40C
100
AcDbEntity
  8
LAYER032
  6
CONTINUOUS
 62
             150
100
AcDbLine
 10
-664.00335539311345
 20
-149.7101400063456
 30
0.0
 11
-664.00335539311345
 21
-157.2101400063456
 31
0.0
  0
LINE
  5
40D
100
AcDbEntity
  8
LAYER032
  6
CONTINUOUS
 62
             150
100
AcDbLine
 10
-665.20335539311327
 20
-149.7101400063456
 30
0.0
 11
-665.20335539311327
 21
-157.2101400063456
 31
0.0
  0
LINE
  5
40E
100
AcDbEntity
  8
LAYER032
  6
CONTINUOUS
 62
             150
100
AcDbLine
 10
-664.00335539311345
 20
-157.2101400063456
 30
0.0
 11
-665.20335539311327
 21
-157.2101400063456
 31
0.0
  0
LINE
  5
40F
100
AcDbEntity
  8
LAYER032
  6
CONTINUOUS
 62
             150
100
AcDbLine
 10
-665.20335539311327
 20
-150.7101400063456
 30
0.0
 11
-666.20335539311327
 21
-150.7101400063456
 31
0.0
  0
LINE
  5
410
100
AcDbEntity
  8
LAYER032
  6
CONTINUOUS
 62
             150
100
AcDbLine
 10
-666.20335539311327
 20
-156.2101400063456
 30
0.0
 11
-665.20335539311327
 21
-156.2101400063456
 31
0.0
  0
LINE
  5
411
100
AcDbEntity
  8
LAYER032
  6
CONTINUOUS
 62
             150
100
AcDbLine
 10
-667.20335539311327
 20
-149.4601400063456
 30
0.0
 11
-666.20335539311327
 21
-149.4601400063456
 31
0.0
  0
LINE
  5
412
100
AcDbEntity
  8
LAYER032
  6
CONTINUOUS
 62
             150
100
AcDbLine
 10
-667.20335539311327
 20
-157.4601400063456
 30
0.0
 11
-666.20335539311327
 21
-157.4601400063456
 31
0.0
  0
LINE
  5
413
100
AcDbEntity
  8
LAYER032
  6
CONTINUOUS
 62
             150
100
AcDbLine
 10
-666.20335539311327
 20
-149.4601400063456
 30
0.0
 11
-666.20335539311327
 21
-157.4601400063456
 31
0.0
  0
LINE
  5
414
100
AcDbEntity
  8
LAYER032
  6
CONTINUOUS
 62
             150
100
AcDbLine
 10
-667.20335539311327
 20
-149.4601400063456
 30
0.0
 11
-667.20335539311327
 21
-157.4601400063456
 31
0.0
  0
LINE
  5
415
100
AcDbEntity
  8
LAYER032
  6
CONTINUOUS
 62
             150
100
AcDbLine
 10
-669.70335539311327
 20
-149.36014000634557
 30
0.0
 11
-669.70335539311327
 21
-157.56014000634551
 31
0.0
  0
LINE
  5
416
100
AcDbEntity
  8
LAYER032
  6
CONTINUOUS
 62
             150
100
AcDbLine
 10
-669.70335539311327
 20
-149.36014000634557
 30
0.0
 11
-667.20335539311327
 21
-149.4601400063456
 31
0.0
  0
LINE
  5
417
100
AcDbEntity
  8
LAYER032
  6
CONTINUOUS
 62
             150
100
AcDbLine
 10
-669.70335539311327
 20
-157.56014000634551
 30
0.0
 11
-667.20335539311327
 21
-157.4601400063456
 31
0.0
  0
LINE
  5
418
100
AcDbEntity
  8
LAYER032
  6
CONTINUOUS
 62
             150
100
AcDbLine
 10
-665.20335539311327
 20
-157.7101400063456
 30
0.0
 11
-664.00335539311345
 21
-157.7101400063456
 31
0.0
  0
LINE
  5
419
100
AcDbEntity
  8
LAYER032
  6
CONTINUOUS
 62
             150
100
AcDbLine
 10
-664.00335539311345
 20
-157.7101400063456
 30
0.0
 11
-664.00335539311345
 21
-165.21014000634554
 31
0.0
  0
LINE
  5
41A
100
AcDbEntity
  8
LAYER032
  6
CONTINUOUS
 62
             150
100
AcDbLine
 10
-665.20335539311327
 20
-157.7101400063456
 30
0.0
 11
-665.20335539311327
 21
-165.21014000634554
 31
0.0
  0
LINE
  5
41B
100
AcDbEntity
  8
LAYER032
  6
CONTINUOUS
 62
             150
100
AcDbLine
 10
-664.00335539311345
 20
-165.21014000634554
 30
0.0
 11
-665.20335539311327
 21
-165.21014000634554
 31
0.0
  0
LINE
  5
41C
100
AcDbEntity
  8
LAYER032
  6
CONTINUOUS
 62
             150
100
AcDbLine
 10
-665.20335539311327
 20
-158.7101400063456
 30
0.0
 11
-666.20335539311327
 21
-158.7101400063456
 31
0.0
  0
LINE
  5
41D
100
AcDbEntity
  8
LAYER032
  6
CONTINUOUS
 62
             150
100
AcDbLine
 10
-666.20335539311327
 20
-164.21014000634554
 30
0.0
 11
-665.20335539311327
 21
-164.21014000634554
 31
0.0
  0
LINE
  5
41E
100
AcDbEntity
  8
LAYER032
  6
CONTINUOUS
 62
             150
100
AcDbLine
 10
-667.20335539311327
 20
-165.46014000634554
 30
0.0
 11
-666.20335539311327
 21
-165.46014000634554
 31
0.0
  0
LINE
  5
41F
100
AcDbEntity
  8
LAYER032
  6
CONTINUOUS
 62
             150
100
AcDbLine
 10
-666.20335539311327
 20
-157.4601400063456
 30
0.0
 11
-666.20335539311327
 21
-165.46014000634554
 31
0.0
  0
LINE
  5
420
100
AcDbEntity
  8
LAYER032
  6
CONTINUOUS
 62
             150
100
AcDbLine
 10
-667.20335539311327
 20
-157.4601400063456
 30
0.0
 11
-667.20335539311327
 21
-165.46014000634554
 31
0.0
  0
LINE
  5
421
100
AcDbEntity
  8
LAYER032
  6
CONTINUOUS
 62
             150
100
AcDbLine
 10
-669.70335539311327
 20
-157.36014000634557
 30
0.0
 11
-669.70335539311327
 21
-165.56014000634556
 31
0.0
  0
LINE
  5
422
100
AcDbEntity
  8
LAYER032
  6
CONTINUOUS
 62
             150
100
AcDbLine
 10
-669.70335539311327
 20
-157.36014000634557
 30
0.0
 11
-667.20335539311327
 21
-157.4601400063456
 31
0.0
  0
LINE
  5
423
100
AcDbEntity
  8
LAYER032
  6
CONTINUOUS
 62
             150
100
AcDbLine
 10
-669.70335539311327
 20
-165.56014000634556
 30
0.0
 11
-667.20335539311327
 21
-165.46014000634554
 31
0.0
  0
LINE
  5
424
100
AcDbEntity
  8
LAYER032
  6
CONTINUOUS
 62
             150
100
AcDbLine
 10
-673.20335539311418
 20
-167.71014000634554
 30
0.0
 11
-672.00335539311436
 21
-167.71014000634554
 31
0.0
  0
LINE
  5
425
100
AcDbEntity
  8
LAYER032
  6
CONTINUOUS
 62
             150
100
AcDbLine
 10
-672.00335539311436
 20
-167.71014000634554
 30
0.0
 11
-672.00335539311436
 21
-175.21014000634554
 31
0.0
  0
LINE
  5
426
100
AcDbEntity
  8
LAYER032
  6
CONTINUOUS
 62
             150
100
AcDbLine
 10
-673.20335539311418
 20
-167.71014000634554
 30
0.0
 11
-673.20335539311418
 21
-175.21014000634554
 31
0.0
  0
LINE
  5
427
100
AcDbEntity
  8
LAYER032
  6
CONTINUOUS
 62
             150
100
AcDbLine
 10
-672.00335539311436
 20
-175.21014000634554
 30
0.0
 11
-673.20335539311418
 21
-175.21014000634554
 31
0.0
  0
LINE
  5
428
100
AcDbEntity
  8
LAYER032
  6
CONTINUOUS
 62
             150
100
AcDbLine
 10
-673.20335539311418
 20
-168.71014000634554
 30
0.0
 11
-674.20335539311418
 21
-168.71014000634554
 31
0.0
  0
LINE
  5
429
100
AcDbEntity
  8
LAYER032
  6
CONTINUOUS
 62
             150
100
AcDbLine
 10
-674.20335539311418
 20
-174.21014000634554
 30
0.0
 11
-673.20335539311418
 21
-174.21014000634554
 31
0.0
  0
LINE
  5
42A
100
AcDbEntity
  8
LAYER032
  6
CONTINUOUS
 62
             150
100
AcDbLine
 10
-675.20335539311418
 20
-167.46014000634554
 30
0.0
 11
-674.20335539311418
 21
-167.46014000634554
 31
0.0
  0
LINE
  5
42B
100
AcDbEntity
  8
LAYER032
  6
CONTINUOUS
 62
             150
100
AcDbLine
 10
-675.20335539311418
 20
-175.46014000634554
 30
0.0
 11
-674.20335539311418
 21
-175.46014000634554
 31
0.0
  0
LINE
  5
42C
100
AcDbEntity
  8
LAYER032
  6
CONTINUOUS
 62
             150
100
AcDbLine
 10
-674.20335539311418
 20
-167.46014000634554
 30
0.0
 11
-674.20335539311418
 21
-175.46014000634554
 31
0.0
  0
LINE
  5
42D
100
AcDbEntity
  8
LAYER032
  6
CONTINUOUS
 62
             150
100
AcDbLine
 10
-675.20335539311418
 20
-167.46014000634554
 30
0.0
 11
-675.20335539311418
 21
-175.46014000634554
 31
0.0
  0
LINE
  5
42E
100
AcDbEntity
  8
LAYER032
  6
CONTINUOUS
 62
             150
100
AcDbLine
 10
-677.70335539311418
 20
-167.36014000634557
 30
0.0
 11
-677.70335539311418
 21
-175.56014000634556
 31
0.0
  0
LINE
  5
42F
100
AcDbEntity
  8
LAYER032
  6
CONTINUOUS
 62
             150
100
AcDbLine
 10
-677.70335539311418
 20
-167.36014000634557
 30
0.0
 11
-675.20335539311418
 21
-167.46014000634554
 31
0.0
  0
LINE
  5
430
100
AcDbEntity
  8
LAYER032
  6
CONTINUOUS
 62
             150
100
AcDbLine
 10
-677.70335539311418
 20
-175.56014000634556
 30
0.0
 11
-675.20335539311418
 21
-175.46014000634554
 31
0.0
  0
LINE
  5
431
100
AcDbEntity
  8
LAYER032
  6
CONTINUOUS
 62
             150
100
AcDbLine
 10
-676.50335539311345
 20
-149.46014000634594
 30
0.0
 11
-673.00335539311345
 21
-149.46014000634594
 31
0.0
  0
LINE
  5
432
100
AcDbEntity
  8
LAYER032
  6
CONTINUOUS
 62
             150
100
AcDbLine
 10
-676.50335539311345
 20
-148.46014000634594
 30
0.0
 11
-673.00335539311345
 21
-148.46014000634594
 31
0.0
  0
LINE
  5
433
100
AcDbEntity
  8
LAYER032
  6
CONTINUOUS
 62
             150
100
AcDbLine
 10
-673.00335539311345
 20
-148.46014000634594
 30
0.0
 11
-673.00335539311345
 21
-149.46014000634594
 31
0.0
  0
LINE
  5
434
100
AcDbEntity
  8
LAYER032
  6
CONTINUOUS
 62
             150
100
AcDbLine
 10
-669.70335539311327
 20
-165.56014000634556
 30
0.0
 11
-679.50335539311345
 21
-165.46014000634554
 31
0.0
  0
LINE
  5
435
100
AcDbEntity
  8
LAYER032
  6
CONTINUOUS
 62
             150
100
AcDbLine
 10
-669.70335539311327
 20
-149.36014000634557
 30
0.0
 11
-673.00335539311345
 21
-149.46014000634594
 31
0.0
  0
LINE
  5
436
100
AcDbEntity
  8
LAYER032
  6
CONTINUOUS
 62
             150
100
AcDbLine
 10
-682.00335539311345
 20
-167.46014000634554
 30
0.0
 11
-677.70335539311418
 21
-167.36014000634557
 31
0.0
  0
LINE
  5
437
100
AcDbEntity
  8
LAYER032
  6
CONTINUOUS
 62
             150
100
AcDbLine
 10
-681.70335539311418
 20
-167.45316326215951
 30
0.0
 11
-681.70335539311418
 21
-175.56014000634556
 31
0.0
  0
LINE
  5
438
100
AcDbEntity
  8
LAYER032
  6
CONTINUOUS
 62
             150
100
AcDbLine
 10
-677.70335539311418
 20
-175.56014000634556
 30
0.0
 11
-686.50335539311345
 21
-175.56014000634556
 31
0.0
  0
LINE
  5
439
100
AcDbEntity
  8
LAYER032
  6
CONTINUOUS
 62
             150
100
AcDbLine
 10
-691.50335539311345
 20
-167.46014000634554
 30
0.0
 11
-691.50335539311345
 21
-170.56014000634556
 31
0.0
  0
ARC
  5
43A
100
AcDbEntity
  8
LAYER032
  6
CONTINUOUS
 62
             150
100
AcDbCircle
 10
-686.50335539311345
 20
-170.56014000634556
 30
0.0
 40
5.0
100
AcDbArc
 50
179.9999999999996
 51
269.99999999999937
  0
LINE
  5
43B
100
AcDbEntity
  8
LAYER032
  6
CONTINUOUS
 62
             150
100
AcDbLine
 10
-691.00335539311345
 20
-146.9601400063456
 30
0.0
 11
-691.00335539311345
 21
-148.4601400063456
 31
0.0
  0
LINE
  5
43C
100
AcDbEntity
  8
LAYER032
  6
CONTINUOUS
 62
             150
100
AcDbLine
 10
-691.00335539311345
 20
-146.9601400063456
 30
0.0
 11
-683.00335539311345
 21
-146.9601400063456
 31
0.0
  0
LINE
  5
43D
100
AcDbEntity
  8
LAYER032
  6
CONTINUOUS
 62
             150
100
AcDbLine
 10
-683.00335539311345
 20
-146.9601400063456
 30
0.0
 11
-683.00335539311345
 21
-148.4601400063456
 31
0.0
  0
LINE
  5
43E
100
AcDbEntity
  8
LAYER032
  6
CONTINUOUS
 62
             150
100
AcDbLine
 10
-685.60335539311382
 20
-146.9601400063456
 30
0.0
 11
-685.60335539311382
 21
-144.9601400063456
 31
0.0
  0
LINE
  5
43F
100
AcDbEntity
  8
LAYER032
  6
CONTINUOUS
 62
             150
100
AcDbLine
 10
-688.40335539311309
 20
-146.9601400063456
 30
0.0
 11
-688.40335539311309
 21
-144.9601400063456
 31
0.0
  0
LINE
  5
440
100
AcDbEntity
  8
LAYER032
  6
CONTINUOUS
 62
             150
100
AcDbLine
 10
-682.37194892877324
 20
-161.08197650951095
 30
0.0
 11
-682.37194892877324
 21
-149.66014000634553
 31
0.0
  0
LINE
  5
441
100
AcDbEntity
  8
LAYER032
  6
CONTINUOUS
 62
             150
100
AcDbLine
 10
-677.50335539311345
 20
-152.19219081391444
 30
0.0
 11
-677.50335539311345
 21
-159.72407202884577
 31
0.0
  0
ARC
  5
442
100
AcDbEntity
  8
LAYER032
  6
CONTINUOUS
 62
             150
100
AcDbCircle
 10
-679.50335539311345
 20
-161.9601400063456
 30
0.0
 40
3.0
100
AcDbArc
 50
48.189685104221432
 51
236.44269023807874
  0
LINE
  5
443
100
AcDbEntity
  8
LAYER032
  6
CONTINUOUS
 62
             150
100
AcDbLine
 10
-694.00335539311345
 20
-164.46014000634554
 30
0.0
 11
-681.1616677882912
 21
-164.46014000634554
 31
0.0
  0
LINE
  5
444
100
AcDbEntity
  8
LAYER032
  6
CONTINUOUS
 62
             150
100
AcDbLine
 10
-681.50335539311345
 20
-148.4601400063456
 30
0.0
 11
-681.50335539311345
 21
-149.66014000634553
 31
0.0
  0
LINE
  5
445
100
AcDbEntity
  8
LAYER032
  6
CONTINUOUS
 62
             150
100
AcDbLine
 10
-694.00335539311345
 20
-148.4601400063456
 30
0.0
 11
-687.00335539311345
 21
-148.4601400063456
 31
0.0
  0
LINE
  5
446
100
AcDbEntity
  8
LAYER032
  6
CONTINUOUS
 62
             150
100
AcDbLine
 10
-669.90541724878403
 20
-165.55807815067547
 30
0.0
 11
-665.00335539311345
 21
-170.4601400063456
 31
0.0
  0
ARC
  5
447
100
AcDbEntity
  8
LAYER032
  6
CONTINUOUS
 62
             150
100
AcDbCircle
 10
-694.00335539311345
 20
-151.4601400063456
 30
0.0
 40
3.0
100
AcDbArc
 50
89.999999999999801
 51
179.9999999999996
  0
LINE
  5
448
100
AcDbEntity
  8
LAYER032
  6
CONTINUOUS
 62
             150
100
AcDbLine
 10
-697.00335539311345
 20
-219.4601400063456
 30
0.0
 11
-697.00335539311345
 21
-151.4601400063456
 31
0.0
  0
LINE
  5
449
100
AcDbEntity
  8
LAYER032
  6
CONTINUOUS
 62
             150
100
AcDbLine
 10
-665.00335539311345
 20
-219.4601400063456
 30
0.0
 11
-665.00335539311345
 21
-170.4601400063456
 31
0.0
  0
CIRCLE
  5
44A
100
AcDbEntity
  8
LAYER032
  6
CONTINUOUS
 62
             150
100
AcDbCircle
 10
1006.0017035408127
 20
-470.71139063591659
 30
0.0
 40
21.0
  0
LINE
  5
44B
100
AcDbEntity
  8
LAYER032
  6
CONTINUOUS
 62
             150
100
AcDbLine
 10
1012.5017035408127
 20
-550.71139063591659
 30
0.0
 11
999.50170354081274
 21
-550.71139063591659
 31
0.0
  0
LINE
  5
44C
100
AcDbEntity
  8
LAYER032
  6
CONTINUOUS
 62
             150
100
AcDbLine
 10
1012.5017035408127
 20
-556.71139063591659
 30
0.0
 11
999.50170354081274
 21
-556.71139063591659
 31
0.0
  0
ARC
  5
44D
100
AcDbEntity
  8
LAYER032
  6
CONTINUOUS
 62
             150
100
AcDbCircle
 10
1012.5017035408127
 20
-540.71139063591659
 30
0.0
 40
10.0
100
AcDbArc
 50
269.99999999999937
 51
359.9999999999992
  0
ARC
  5
44E
100
AcDbEntity
  8
LAYER032
  6
CONTINUOUS
 62
             150
100
AcDbCircle
 10
999.50170354081274
 20
-540.71139063591659
 30
0.0
 40
10.0
100
AcDbArc
 50
179.99999999999957
 51
269.99999999999937
  0
LINE
  5
44F
100
AcDbEntity
  8
LAYER032
  6
CONTINUOUS
 62
             150
100
AcDbLine
 10
1012.5017035408127
 20
-550.71139063591659
 30
0.0
 11
1012.5017035408127
 21
-556.71139063591659
 31
0.0
  0
LINE
  5
450
100
AcDbEntity
  8
LAYER032
  6
CONTINUOUS
 62
             150
100
AcDbLine
 10
999.50170354081274
 20
-550.71139063591659
 30
0.0
 11
999.50170354081274
 21
-556.71139063591659
 31
0.0
  0
LINE
  5
451
100
AcDbEntity
  8
LAYER032
  6
CONTINUOUS
 62
             150
100
AcDbLine
 10
1022.5017035408127
 20
-494.7113906359167
 30
0.0
 11
1022.5017035408127
 21
-540.71139063591659
 31
0.0
  0
LINE
  5
452
100
AcDbEntity
  8
LAYER032
  6
CONTINUOUS
 62
             150
100
AcDbLine
 10
989.50170354081274
 20
-494.71139063591659
 30
0.0
 11
989.50170354081274
 21
-540.71139063591659
 31
0.0
  0
LINE
  5
453
100
AcDbEntity
  8
LAYER032
  6
CONTINUOUS
 62
             150
100
AcDbLine
 10
1025.5017035408127
 20
-494.7113906359167
 30
0.0
 11
986.50170354081274
 21
-494.71139063591659
 31
0.0
  0
LINE
  5
454
100
AcDbEntity
  8
LAYER032
  6
CONTINUOUS
 62
             150
100
AcDbLine
 10
986.50170354081274
 20
-494.71139063591659
 30
0.0
 11
986.50170354081274
 21
-478.50561926997648
 31
0.0
  0
LINE
  5
455
100
AcDbEntity
  8
LAYER032
  6
CONTINUOUS
 62
             150
100
AcDbLine
 10
1025.5017035408127
 20
-478.50561926997659
 30
0.0
 11
1025.5017035408127
 21
-494.7113906359167
 31
0.0
  0
LINE
  5
456
100
AcDbEntity
  8
LAYER032
  6
CONTINUOUS
 62
             150
100
AcDbLine
 10
1007.0017035408127
 20
-557.71139063591659
 30
0.0
 11
1007.0017035408127
 21
-558.71139063591659
 31
0.0
  0
LINE
  5
457
100
AcDbEntity
  8
LAYER032
  6
CONTINUOUS
 62
             150
100
AcDbLine
 10
1006.5017035408127
 20
-556.71139063591659
 30
0.0
 11
1006.5017035408127
 21
-557.71139063591659
 31
0.0
  0
LINE
  5
458
100
AcDbEntity
  8
LAYER032
  6
CONTINUOUS
 62
             150
100
AcDbLine
 10
1005.5017035408127
 20
-557.71139063591659
 30
0.0
 11
1005.5017035408127
 21
-556.71139063591659
 31
0.0
  0
LINE
  5
459
100
AcDbEntity
  8
LAYER032
  6
CONTINUOUS
 62
             150
100
AcDbLine
 10
1007.0017035408127
 20
-557.71139063591659
 30
0.0
 11
1005.0017035408127
 21
-557.71139063591659
 31
0.0
  0
LINE
  5
45A
100
AcDbEntity
  8
LAYER032
  6
CONTINUOUS
 62
             150
100
AcDbLine
 10
1005.0017035408127
 20
-558.71139063591659
 30
0.0
 11
1005.0017035408127
 21
-557.71139063591659
 31
0.0
  0
LINE
  5
45B
100
AcDbEntity
  8
LAYER032
  6
CONTINUOUS
 62
             150
100
AcDbLine
 10
1007.0017035408127
 20
-558.71139063591659
 30
0.0
 11
1005.0017035408127
 21
-558.71139063591659
 31
0.0
  0
LINE
  5
45C
100
AcDbEntity
  8
LAYER032
  6
CONTINUOUS
 62
             150
100
AcDbLine
 10
1020.0017035408137
 20
-409.7113906359167
 30
0.0
 11
992.00170354081365
 21
-409.71139063591659
 31
0.0
  0
LINE
  5
45D
100
AcDbEntity
  8
LAYER032
  6
CONTINUOUS
 62
             150
100
AcDbLine
 10
992.00170354081365
 20
-434.71139063591659
 30
0.0
 11
992.00170354081365
 21
-409.71139063591659
 31
0.0
  0
LINE
  5
45E
100
AcDbEntity
  8
LAYER032
  6
CONTINUOUS
 62
             150
100
AcDbLine
 10
1020.0017035408137
 20
-434.7113906359167
 30
0.0
 11
992.00170354081365
 21
-434.71139063591659
 31
0.0
  0
LINE
  5
45F
100
AcDbEntity
  8
LAYER032
  6
CONTINUOUS
 62
             150
100
AcDbLine
 10
1020.0017035408137
 20
-409.7113906359167
 30
0.0
 11
1020.0017035408137
 21
-434.7113906359167
 31
0.0
  0
LINE
  5
460
100
AcDbEntity
  8
LAYER032
  6
CONTINUOUS
 62
             150
100
AcDbLine
 10
1017.5017035408137
 20
-434.7113906359167
 30
0.0
 11
1017.5017035408137
 21
-438.2113906359167
 31
0.0
  0
LINE
  5
461
100
AcDbEntity
  8
LAYER032
  6
CONTINUOUS
 62
             150
100
AcDbLine
 10
994.50170354081365
 20
-438.21139063591659
 30
0.0
 11
994.50170354081365
 21
-434.71139063591659
 31
0.0
  0
LINE
  5
462
100
AcDbEntity
  8
LAYER032
  6
CONTINUOUS
 62
             150
100
AcDbLine
 10
1025.5017035408137
 20
-438.2113906359167
 30
0.0
 11
986.50170354081365
 21
-438.21139063591659
 31
0.0
  0
LINE
  5
463
100
AcDbEntity
  8
LAYER032
  6
CONTINUOUS
 62
             150
100
AcDbLine
 10
1028.0017035408137
 20
-426.7113906359167
 30
0.0
 11
1020.0017035408137
 21
-426.7113906359167
 31
0.0
  0
LINE
  5
464
100
AcDbEntity
  8
LAYER032
  6
CONTINUOUS
 62
             150
100
AcDbLine
 10
992.00170354081365
 20
-426.71139063591659
 30
0.0
 11
984.00170354081365
 21
-426.71139063591659
 31
0.0
  0
ARC
  5
465
100
AcDbEntity
  8
LAYER032
  6
CONTINUOUS
 62
             150
100
AcDbCircle
 10
1028.0017035408137
 20
-429.7113906359167
 30
0.0
 40
3.0
100
AcDbArc
 50
359.9999999999992
 51
449.99999999999898
  0
ARC
  5
466
100
AcDbEntity
  8
LAYER032
  6
CONTINUOUS
 62
             150
100
AcDbCircle
 10
984.00170354081365
 20
-429.71139063591659
 30
0.0
 40
3.0
100
AcDbArc
 50
89.999999999999787
 51
179.9999999999996
  0
LINE
  5
467
100
AcDbEntity
  8
LAYER032
  6
CONTINUOUS
 62
             150
100
AcDbLine
 10
1031.0017035408137
 20
-429.7113906359167
 30
0.0
 11
1031.0017035408137
 21
-446.7113906359167
 31
0.0
  0
LINE
  5
468
100
AcDbEntity
  8
LAYER032
  6
CONTINUOUS
 62
             150
100
AcDbLine
 10
981.00170354081365
 20
-429.71139063591659
 30
0.0
 11
981.00170354081365
 21
-446.7113906359167
 31
0.0
  0
LINE
  5
469
100
AcDbEntity
  8
LAYER032
  6
CONTINUOUS
 62
             150
100
AcDbLine
 10
1031.0017035408137
 20
-446.7113906359167
 30
0.0
 11
981.00170354081365
 21
-446.7113906359167
 31
0.0
  0
LINE
  5
46A
100
AcDbEntity
  8
LAYER032
  6
CONTINUOUS
 62
             150
100
AcDbLine
 10
1031.0017035408137
 20
-445.2113906359167
 30
0.0
 11
981.00170354081365
 21
-445.2113906359167
 31
0.0
  0
LINE
  5
46B
100
AcDbEntity
  8
LAYER032
  6
CONTINUOUS
 62
             150
100
AcDbLine
 10
1045.0017035408137
 20
-480.2113906359167
 30
0.0
 11
1073.0017035408137
 21
-480.2113906359167
 31
0.0
  0
LINE
  5
46C
100
AcDbEntity
  8
LAYER032
  6
CONTINUOUS
 62
             150
100
AcDbLine
 10
1047.5017035408137
 20
-477.7113906359167
 30
0.0
 11
1070.5017035408137
 21
-477.7113906359167
 31
0.0
  0
CIRCLE
  5
46D
100
AcDbEntity
  8
LAYER032
  6
CONTINUOUS
 62
             150
100
AcDbCircle
 10
1050.5017035408137
 20
-464.2113906359167
 30
0.0
 40
3.0
  0
CIRCLE
  5
46E
100
AcDbEntity
  8
LAYER032
  6
CONTINUOUS
 62
             150
100
AcDbCircle
 10
1067.5017035408137
 20
-464.2113906359167
 30
0.0
 40
3.0
  0
CIRCLE
  5
46F
100
AcDbEntity
  8
LAYER032
  6
CONTINUOUS
 62
             150
100
AcDbCircle
 10
1050.5017035408137
 20
-464.2113906359167
 30
0.0
 40
2.0
  0
CIRCLE
  5
470
100
AcDbEntity
  8
LAYER032
  6
CONTINUOUS
 62
             150
100
AcDbCircle
 10
1067.5017035408137
 20
-464.2113906359167
 30
0.0
 40
2.0
  0
LINE
  5
471
100
AcDbEntity
  8
LAYER032
  6
CONTINUOUS
 62
             150
100
AcDbLine
 10
1053.5017035408137
 20
-463.7113906359167
 30
0.0
 11
1064.5017035408137
 21
-463.7113906359167
 31
0.0
  0
LINE
  5
472
100
AcDbEntity
  8
LAYER032
  6
CONTINUOUS
 62
             150
100
AcDbLine
 10
1070.5017035408137
 20
-463.71139063591579
 30
0.0
 11
1073.0017035408137
 21
-463.71139063591579
 31
0.0
  0
LINE
  5
473
100
AcDbEntity
  8
LAYER032
  6
CONTINUOUS
 62
             150
100
AcDbLine
 10
1073.0017035408137
 20
-480.2113906359167
 30
0.0
 11
1073.0017035408137
 21
-463.71139063591579
 31
0.0
  0
LINE
  5
474
100
AcDbEntity
  8
LAYER032
  6
CONTINUOUS
 62
             150
100
AcDbLine
 10
1070.5017035408137
 20
-463.71139063591579
 30
0.0
 11
1070.5017035408137
 21
-477.7113906359167
 31
0.0
  0
LINE
  5
475
100
AcDbEntity
  8
LAYER032
  6
CONTINUOUS
 62
             150
100
AcDbLine
 10
1047.5017035408137
 20
-463.71139063591579
 30
0.0
 11
1045.0017035408137
 21
-463.71139063591579
 31
0.0
  0
LINE
  5
476
100
AcDbEntity
  8
LAYER032
  6
CONTINUOUS
 62
             150
100
AcDbLine
 10
1045.0017035408137
 20
-463.71139063591579
 30
0.0
 11
1045.0017035408137
 21
-480.2113906359167
 31
0.0
  0
LINE
  5
477
100
AcDbEntity
  8
LAYER032
  6
CONTINUOUS
 62
             150
100
AcDbLine
 10
1047.5017035408137
 20
-463.71139063591579
 30
0.0
 11
1047.5017035408137
 21
-477.7113906359167
 31
0.0
  0
LINE
  5
478
100
AcDbEntity
  8
LAYER032
  6
CONTINUOUS
 62
             150
100
AcDbLine
 10
1067.5017035408137
 20
-461.2113906359167
 30
0.0
 11
1050.5017035408137
 21
-461.2113906359167
 31
0.0
  0
LINE
  5
479
100
AcDbEntity
  8
LAYER032
  6
CONTINUOUS
 62
             150
100
AcDbLine
 10
1064.5017035408137
 20
-480.2113906359167
 30
0.0
 11
1064.5017035408137
 21
-483.2113906359167
 31
0.0
  0
LINE
  5
47A
100
AcDbEntity
  8
LAYER032
  6
CONTINUOUS
 62
             150
100
AcDbLine
 10
1053.5017035408137
 20
-483.2113906359167
 30
0.0
 11
1064.5017035408137
 21
-483.2113906359167
 31
0.0
  0
LINE
  5
47B
100
AcDbEntity
  8
LAYER032
  6
CONTINUOUS
 62
             150
100
AcDbLine
 10
1053.5017035408137
 20
-480.2113906359167
 30
0.0
 11
1053.5017035408137
 21
-483.2113906359167
 31
0.0
  0
LINE
  5
47C
100
AcDbEntity
  8
LAYER032
  6
CONTINUOUS
 62
             150
100
AcDbLine
 10
1073.0017035408137
 20
-464.2113906359167
 30
0.0
 11
1081.0017035408137
 21
-464.2113906359167
 31
0.0
  0
LINE
  5
47D
100
AcDbEntity
  8
LAYER032
  6
CONTINUOUS
 62
             150
100
AcDbLine
 10
1081.0017035408137
 20
-464.2113906359167
 30
0.0
 11
1081.0017035408137
 21
-477.2113906359167
 31
0.0
  0
LINE
  5
47E
100
AcDbEntity
  8
LAYER032
  6
CONTINUOUS
 62
             150
100
AcDbLine
 10
1073.0017035408137
 20
-477.2113906359167
 30
0.0
 11
1081.0017035408137
 21
-477.2113906359167
 31
0.0
  0
LINE
  5
47F
100
AcDbEntity
  8
LAYER032
  6
CONTINUOUS
 62
             150
100
AcDbLine
 10
1085.0017035408137
 20
-476.7113906359167
 30
0.0
 11
1083.5017035408137
 21
-476.7113906359167
 31
0.0
  0
LINE
  5
480
100
AcDbEntity
  8
LAYER032
  6
CONTINUOUS
 62
             150
100
AcDbLine
 10
1085.0017035408137
 20
-464.7113906359167
 30
0.0
 11
1085.0017035408137
 21
-476.7113906359167
 31
0.0
  0
LINE
  5
481
100
AcDbEntity
  8
LAYER032
  6
CONTINUOUS
 62
             150
100
AcDbLine
 10
1083.5017035408137
 20
-464.7113906359167
 30
0.0
 11
1083.5017035408137
 21
-476.7113906359167
 31
0.0
  0
LINE
  5
482
100
AcDbEntity
  8
LAYER032
  6
CONTINUOUS
 62
             150
100
AcDbLine
 10
1083.5017035408137
 20
-464.7113906359167
 30
0.0
 11
1085.0017035408137
 21
-464.7113906359167
 31
0.0
  0
LINE
  5
483
100
AcDbEntity
  8
LAYER032
  6
CONTINUOUS
 62
             150
100
AcDbLine
 10
1081.0017035408137
 20
-465.7113906359167
 30
0.0
 11
1082.5017035408137
 21
-465.7113906359167
 31
0.0
  0
LINE
  5
484
100
AcDbEntity
  8
LAYER032
  6
CONTINUOUS
 62
             150
100
AcDbLine
 10
1082.5017035408137
 20
-475.7113906359167
 30
0.0
 11
1081.0017035408137
 21
-475.7113906359167
 31
0.0
  0
LINE
  5
485
100
AcDbEntity
  8
LAYER032
  6
CONTINUOUS
 62
             150
100
AcDbLine
 10
1082.5017035408137
 20
-465.7113906359167
 30
0.0
 11
1082.5017035408137
 21
-475.7113906359167
 31
0.0
  0
LINE
  5
486
100
AcDbEntity
  8
LAYER032
  6
CONTINUOUS
 62
             150
100
AcDbLine
 10
1082.5017035408137
 20
-466.7113906359167
 30
0.0
 11
1083.5017035408137
 21
-466.7113906359167
 31
0.0
  0
LINE
  5
487
100
AcDbEntity
  8
LAYER032
  6
CONTINUOUS
 62
             150
100
AcDbLine
 10
1082.5017035408137
 20
-474.7113906359167
 30
0.0
 11
1083.5017035408137
 21
-474.7113906359167
 31
0.0
  0
LINE
  5
488
100
AcDbEntity
  8
LAYER032
  6
CONTINUOUS
 62
             150
100
AcDbLine
 10
1082.0017035408137
 20
-465.7113906359167
 30
0.0
 11
1082.0017035408137
 21
-475.7113906359167
 31
0.0
  0
LINE
  5
489
100
AcDbEntity
  8
LAYER032
  6
CONTINUOUS
 62
             150
100
AcDbLine
 10
1056.5017035408137
 20
-442.2113906359167
 30
0.0
 11
1061.5017035408137
 21
-442.2113906359167
 31
0.0
  0
LINE
  5
48A
100
AcDbEntity
  8
LAYER032
  6
CONTINUOUS
 62
             150
100
AcDbLine
 10
1056.5017035408137
 20
-442.2113906359167
 30
0.0
 11
1056.5017035408137
 21
-452.2113906359167
 31
0.0
  0
LINE
  5
48B
100
AcDbEntity
  8
LAYER032
  6
CONTINUOUS
 62
             150
100
AcDbLine
 10
1061.5017035408137
 20
-442.2113906359167
 30
0.0
 11
1061.5017035408137
 21
-452.2113906359167
 31
0.0
  0
LINE
  5
48C
100
AcDbEntity
  8
LAYER032
  6
CONTINUOUS
 62
             150
100
AcDbLine
 10
1065.0017035408137
 20
-452.2113906359167
 30
0.0
 11
1065.0017035408137
 21
-457.2113906359167
 31
0.0
  0
LINE
  5
48D
100
AcDbEntity
  8
LAYER032
  6
CONTINUOUS
 62
             150
100
AcDbLine
 10
1053.0017035408137
 20
-452.2113906359167
 30
0.0
 11
1053.0017035408137
 21
-457.2113906359167
 31
0.0
  0
LINE
  5
48E
100
AcDbEntity
  8
LAYER032
  6
CONTINUOUS
 62
             150
100
AcDbLine
 10
1053.0017035408137
 20
-452.2113906359167
 30
0.0
 11
1065.0017035408137
 21
-452.2113906359167
 31
0.0
  0
LINE
  5
48F
100
AcDbEntity
  8
LAYER032
  6
CONTINUOUS
 62
             150
100
AcDbLine
 10
1051.0017035408137
 20
-457.2113906359167
 30
0.0
 11
1067.0017035408137
 21
-457.2113906359167
 31
0.0
  0
LINE
  5
490
100
AcDbEntity
  8
LAYER032
  6
CONTINUOUS
 62
             150
100
AcDbLine
 10
1067.0017035408137
 20
-457.2113906359167
 30
0.0
 11
1067.0017035408137
 21
-461.2113906359167
 31
0.0
  0
LINE
  5
491
100
AcDbEntity
  8
LAYER032
  6
CONTINUOUS
 62
             150
100
AcDbLine
 10
1051.0017035408137
 20
-457.2113906359167
 30
0.0
 11
1051.0017035408137
 21
-461.2113906359167
 31
0.0
  0
LINE
  5
492
100
AcDbEntity
  8
LAYER032
  6
CONTINUOUS
 62
             150
100
AcDbLine
 10
1045.0017035408137
 20
-464.21139063591772
 30
0.0
 11
1038.5017035408137
 21
-464.21139063591772
 31
0.0
  0
LINE
  5
493
100
AcDbEntity
  8
LAYER032
  6
CONTINUOUS
 62
             150
100
AcDbLine
 10
1038.5017035408137
 20
-464.21139063591772
 30
0.0
 11
1038.5017035408137
 21
-477.21139063591772
 31
0.0
  0
LINE
  5
494
100
AcDbEntity
  8
LAYER032
  6
CONTINUOUS
 62
             150
100
AcDbLine
 10
1045.0017035408137
 20
-477.21139063591772
 30
0.0
 11
1038.5017035408137
 21
-477.21139063591772
 31
0.0
  0
LINE
  5
495
100
AcDbEntity
  8
LAYER032
  6
CONTINUOUS
 62
             150
100
AcDbLine
 10
1035.5017035408137
 20
-477.7113906359167
 30
0.0
 11
1032.5017035408137
 21
-477.7113906359167
 31
0.0
  0
LINE
  5
496
100
AcDbEntity
  8
LAYER032
  6
CONTINUOUS
 62
             150
100
AcDbLine
 10
1035.5017035408137
 20
-463.7113906359167
 30
0.0
 11
1035.5017035408137
 21
-477.7113906359167
 31
0.0
  0
LINE
  5
497
100
AcDbEntity
  8
LAYER032
  6
CONTINUOUS
 62
             150
100
AcDbLine
 10
1032.5017035408137
 20
-463.7113906359167
 30
0.0
 11
1032.5017035408137
 21
-477.7113906359167
 31
0.0
  0
LINE
  5
498
100
AcDbEntity
  8
LAYER032
  6
CONTINUOUS
 62
             150
100
AcDbLine
 10
1035.5017035408137
 20
-463.7113906359167
 30
0.0
 11
1032.5017035408137
 21
-463.7113906359167
 31
0.0
  0
LINE
  5
499
100
AcDbEntity
  8
LAYER032
  6
CONTINUOUS
 62
             150
100
AcDbLine
 10
1032.5017035408137
 20
-464.7113906359167
 30
0.0
 11
1026.1263153383115
 21
-464.7113906359167
 31
0.0
  0
LINE
  5
49A
100
AcDbEntity
  8
LAYER032
  6
CONTINUOUS
 62
             150
100
AcDbLine
 10
1032.5017035408137
 20
-476.7113906359167
 30
0.0
 11
1026.1263153383115
 21
-476.7113906359167
 31
0.0
  0
LINE
  5
49B
100
AcDbEntity
  8
LAYER032
  6
CONTINUOUS
 62
             150
100
AcDbLine
 10
976.50170354081365
 20
-477.7113906359167
 30
0.0
 11
979.50170354081365
 21
-477.7113906359167
 31
0.0
  0
LINE
  5
49C
100
AcDbEntity
  8
LAYER032
  6
CONTINUOUS
 62
             150
100
AcDbLine
 10
976.50170354081365
 20
-463.7113906359167
 30
0.0
 11
976.50170354081365
 21
-477.7113906359167
 31
0.0
  0
LINE
  5
49D
100
AcDbEntity
  8
LAYER032
  6
CONTINUOUS
 62
             150
100
AcDbLine
 10
979.50170354081365
 20
-463.7113906359167
 30
0.0
 11
979.50170354081365
 21
-477.7113906359167
 31
0.0
  0
LINE
  5
49E
100
AcDbEntity
  8
LAYER032
  6
CONTINUOUS
 62
             150
100
AcDbLine
 10
976.50170354081365
 20
-463.7113906359167
 30
0.0
 11
979.50170354081365
 21
-463.7113906359167
 31
0.0
  0
LINE
  5
49F
100
AcDbEntity
  8
LAYER032
  6
CONTINUOUS
 62
             150
100
AcDbLine
 10
979.50170354081365
 20
-464.7113906359167
 30
0.0
 11
985.87709174331576
 21
-464.7113906359167
 31
0.0
  0
LINE
  5
4A0
100
AcDbEntity
  8
LAYER032
  6
CONTINUOUS
 62
             150
100
AcDbLine
 10
979.50170354081365
 20
-476.7113906359167
 30
0.0
 11
985.87709174331576
 21
-476.7113906359167
 31
0.0
  0
LINE
  5
4A1
100
AcDbEntity
  8
LAYER032
  6
CONTINUOUS
 62
             150
100
AcDbLine
 10
1038.5017035408137
 20
-475.7113906359167
 30
0.0
 11
1035.5017035408137
 21
-475.7113906359167
 31
0.0
  0
LINE
  5
4A2
100
AcDbEntity
  8
LAYER032
  6
CONTINUOUS
 62
             150
100
AcDbLine
 10
1038.5017035408137
 20
-465.7113906359167
 30
0.0
 11
1035.5017035408137
 21
-465.7113906359167
 31
0.0
  0
LINE
  5
4A3
100
AcDbEntity
  8
LAYER032
  6
CONTINUOUS
 62
             150
100
AcDbLine
 10
972.50170354081274
 20
-464.71139063591681
 30
0.0
 11
974.00170354081274
 21
-464.71139063591681
 31
0.0
  0
LINE
  5
4A4
100
AcDbEntity
  8
LAYER032
  6
CONTINUOUS
 62
             150
100
AcDbLine
 10
972.50170354081274
 20
-476.71139063591681
 30
0.0
 11
972.50170354081274
 21
-464.71139063591681
 31
0.0
  0
LINE
  5
4A5
100
AcDbEntity
  8
LAYER032
  6
CONTINUOUS
 62
             150
100
AcDbLine
 10
974.00170354081274
 20
-476.71139063591681
 30
0.0
 11
974.00170354081274
 21
-464.71139063591681
 31
0.0
  0
LINE
  5
4A6
100
AcDbEntity
  8
LAYER032
  6
CONTINUOUS
 62
             150
100
AcDbLine
 10
974.00170354081274
 20
-476.71139063591681
 30
0.0
 11
972.50170354081274
 21
-476.71139063591681
 31
0.0
  0
LINE
  5
4A7
100
AcDbEntity
  8
LAYER032
  6
CONTINUOUS
 62
             150
100
AcDbLine
 10
976.50170354081274
 20
-475.71139063591681
 30
0.0
 11
975.00170354081274
 21
-475.71139063591681
 31
0.0
  0
LINE
  5
4A8
100
AcDbEntity
  8
LAYER032
  6
CONTINUOUS
 62
             150
100
AcDbLine
 10
975.00170354081274
 20
-465.71139063591681
 30
0.0
 11
976.50170354081274
 21
-465.71139063591681
 31
0.0
  0
LINE
  5
4A9
100
AcDbEntity
  8
LAYER032
  6
CONTINUOUS
 62
             150
100
AcDbLine
 10
975.00170354081274
 20
-475.71139063591681
 30
0.0
 11
975.00170354081274
 21
-465.71139063591681
 31
0.0
  0
LINE
  5
4AA
100
AcDbEntity
  8
LAYER032
  6
CONTINUOUS
 62
             150
100
AcDbLine
 10
975.00170354081274
 20
-474.71139063591681
 30
0.0
 11
974.00170354081274
 21
-474.71139063591681
 31
0.0
  0
LINE
  5
4AB
100
AcDbEntity
  8
LAYER032
  6
CONTINUOUS
 62
             150
100
AcDbLine
 10
975.00170354081274
 20
-466.71139063591681
 30
0.0
 11
974.00170354081274
 21
-466.71139063591681
 31
0.0
  0
LINE
  5
4AC
100
AcDbEntity
  8
LAYER032
  6
CONTINUOUS
 62
             150
100
AcDbLine
 10
975.50170354081274
 20
-475.71139063591681
 30
0.0
 11
975.50170354081274
 21
-465.71139063591681
 31
0.0
  0
LINE
  5
4AD
100
AcDbEntity
  8
LAYER032
  6
CONTINUOUS
 62
             150
100
AcDbLine
 10
1025.5017035408137
 20
-438.2113906359167
 30
0.0
 11
1025.5017035408137
 21
-445.2113906359167
 31
0.0
  0
LINE
  5
4AE
100
AcDbEntity
  8
LAYER032
  6
CONTINUOUS
 62
             150
100
AcDbLine
 10
1025.5017035408137
 20
-446.7113906359167
 30
0.0
 11
1025.5017035408137
 21
-462.91716200185681
 31
0.0
  0
LINE
  5
4AF
100
AcDbEntity
  8
LAYER032
  6
CONTINUOUS
 62
             150
100
AcDbLine
 10
986.50170354081365
 20
-462.9171620018567
 30
0.0
 11
986.50170354081365
 21
-446.7113906359167
 31
0.0
  0
LINE
  5
4B0
100
AcDbEntity
  8
LAYER032
  6
CONTINUOUS
 62
             150
100
AcDbLine
 10
986.50170354081365
 20
-445.2113906359167
 30
0.0
 11
986.50170354081365
 21
-438.21139063591659
 31
0.0
  0
LINE
  5
4B1
100
AcDbEntity
  8
LAYER032
  6
CONTINUOUS
 62
             150
100
AcDbLine
 10
988.00170354081365
 20
-429.21139063591659
 30
0.0
 11
990.00170354081365
 21
-429.21139063591659
 31
0.0
  0
LINE
  5
4B2
100
AcDbEntity
  8
LAYER032
  6
CONTINUOUS
 62
             150
100
AcDbLine
 10
988.00170354081365
 20
-435.71139063591659
 30
0.0
 11
990.00170354081365
 21
-435.71139063591659
 31
0.0
  0
ARC
  5
4B3
100
AcDbEntity
  8
LAYER032
  6
CONTINUOUS
 62
             150
100
AcDbCircle
 10
988.00170354081365
 20
-432.46139063591659
 30
0.0
 40
3.25
100
AcDbArc
 50
89.999999999999801
 51
269.99999999999937
  0
ARC
  5
4B4
100
AcDbEntity
  8
LAYER032
  6
CONTINUOUS
 62
             150
100
AcDbCircle
 10
990.00170354081365
 20
-432.46139063591659
 30
0.0
 40
3.25
100
AcDbArc
 50
52.020127555147923
 51
89.999999999999801
  0
ARC
  5
4B5
100
AcDbEntity
  8
LAYER032
  6
CONTINUOUS
 62
             150
100
AcDbCircle
 10
990.00170354081365
 20
-432.46139063591659
 30
0.0
 40
3.25
100
AcDbArc
 50
269.99999999999937
 51
316.1869385395961
  0
LINE
  5
4B6
100
AcDbEntity
  8
LAYER032
  6
CONTINUOUS
 62
             150
100
AcDbLine
 10
1024.0017035408137
 20
-429.21139063591659
 30
0.0
 11
1022.0017035408137
 21
-429.21139063591659
 31
0.0
  0
LINE
  5
4B7
100
AcDbEntity
  8
LAYER032
  6
CONTINUOUS
 62
             150
100
AcDbLine
 10
1024.0017035408137
 20
-435.71139063591659
 30
0.0
 11
1022.0017035408137
 21
-435.71139063591659
 31
0.0
  0
ARC
  5
4B8
100
AcDbEntity
  8
LAYER032
  6
CONTINUOUS
 62
             150
100
AcDbCircle
 10
1024.0017035408137
 20
-432.46139063591659
 30
0.0
 40
3.25
100
AcDbArc
 50
269.99999999999937
 51
449.99999999999898
  0
ARC
  5
4B9
100
AcDbEntity
  8
LAYER032
  6
CONTINUOUS
 62
             150
100
AcDbCircle
 10
1022.0017035408137
 20
-432.46139063591659
 30
0.0
 40
3.25
100
AcDbArc
 50
89.999999999999815
 51
127.97987244485167
  0
ARC
  5
4BA
100
AcDbEntity
  8
LAYER032
  6
CONTINUOUS
 62
             150
100
AcDbCircle
 10
1022.0017035408137
 20
-432.46139063591659
 30
0.0
 40
3.25
100
AcDbArc
 50
223.81306146040268
 51
269.99999999999937
  0
LINE
  5
4BB
100
AcDbEntity
  8
LAYER032
  6
CONTINUOUS
 62
             232
100
AcDbLine
 10
981.00170354081365
 20
-602.46139063591932
 30
0.0
 11
1031.0017035408137
 21
-602.46139063591932
 31
0.0
  0
ARC
  5
4BC
100
AcDbEntity
  8
LAYER032
  6
CONTINUOUS
 62
             232
100
AcDbCircle
 10
984.00170354081365
 20
-425.46139063593455
 30
0.0
 40
3.0
100
AcDbArc
 50
89.999999999999801
 51
179.9999999999996
  0
ARC
  5
4BD
100
AcDbEntity
  8
LAYER032
  6
CONTINUOUS
 62
             232
100
AcDbCircle
 10
1028.0017035408137
 20
-425.46139063593455
 30
0.0
 40
3.0
100
AcDbArc
 50
0.0
 51
89.999999999999801
  0
LINE
  5
4BE
100
AcDbEntity
  8
LAYER032
  6
CONTINUOUS
 62
             232
100
AcDbLine
 10
984.00170354081365
 20
-422.46139063593455
 30
0.0
 11
992.00170354081365
 21
-422.46139063593455
 31
0.0
  0
LINE
  5
4BF
100
AcDbEntity
  8
LAYER032
  6
CONTINUOUS
 62
             232
100
AcDbLine
 10
1020.0017035408137
 20
-422.46139063593455
 30
0.0
 11
1028.0017035408137
 21
-422.46139063593455
 31
0.0
  0
LINE
  5
4C0
100
AcDbEntity
  8
LAYER032
  6
CONTINUOUS
 62
             232
100
AcDbLine
 10
981.00170354081365
 20
-425.46139063593455
 30
0.0
 11
981.00170354081365
 21
-464.7113906359167
 31
0.0
  0
LINE
  5
4C1
100
AcDbEntity
  8
LAYER032
  6
CONTINUOUS
 62
             232
100
AcDbLine
 10
981.00170354081365
 20
-476.7113906359167
 30
0.0
 11
981.00170354081365
 21
-602.46139063591932
 31
0.0
  0
LINE
  5
4C2
100
AcDbEntity
  8
LAYER032
  6
CONTINUOUS
 62
             232
100
AcDbLine
 10
1031.0017035408137
 20
-425.46139063593455
 30
0.0
 11
1031.0017035408137
 21
-464.7113906359167
 31
0.0
  0
LINE
  5
4C3
100
AcDbEntity
  8
LAYER032
  6
CONTINUOUS
 62
             232
100
AcDbLine
 10
1031.0017035408137
 20
-476.7113906359167
 30
0.0
 11
1031.0017035408137
 21
-602.46139063591932
 31
0.0
  0
LINE
  5
4C4
100
AcDbEntity
  8
LAYER032
  6
DASHED2
 62
             232
100
AcDbLine
 10
981.00170354081365
 20
-599.26139063591927
 30
0.0
 11
1031.0017035408137
 21
-599.26139063591927
 31
0.0
  0
INSERT
  5
4C5
100
AcDbEntity
  8
LAYER128
  6
CONTINUOUS
100
AcDbBlockReference
  2
GROUP_1
 10
0.0
 20
0.0
 30
0.0
  0
INSERT
  5
4C6
100
AcDbEntity
  8
LAYER128
  6
CONTINUOUS
100
AcDbBlockReference
  2
GROUP_2
 10
0.0
 20
0.0
 30
0.0
  0
INSERT
  5
4C7
100
AcDbEntity
  8
LAYER128
  6
CONTINUOUS
100
AcDbBlockReference
  2
GROUP_3
 10
0.0
 20
0.0
 30
0.0
  0
INSERT
  5
4C8
100
AcDbEntity
  8
LAYER128
  6
CONTINUOUS
100
AcDbBlockReference
  2
GROUP_4
 10
0.0
 20
0.0
 30
0.0
  0
INSERT
  5
4C9
100
AcDbEntity
  8
LAYER128
  6
CONTINUOUS
100
AcDbBlockReference
  2
GROUP_5
 10
0.0
 20
0.0
 30
0.0
  0
INSERT
  5
4CA
100
AcDbEntity
  8
LAYER128
  6
CONTINUOUS
100
AcDbBlockReference
  2
GROUP_6
 10
0.0
 20
0.0
 30
0.0
  0
INSERT
  5
4CB
100
AcDbEntity
  8
LAYER128
  6
CONTINUOUS
100
AcDbBlockReference
  2
GROUP_7
 10
0.0
 20
0.0
 30
0.0
  0
INSERT
  5
4CC
100
AcDbEntity
  8
LAYER128
  6
CONTINUOUS
100
AcDbBlockReference
  2
GROUP_8
 10
0.0
 20
0.0
 30
0.0
  0
INSERT
  5
4CD
100
AcDbEntity
  8
LAYER128
  6
CONTINUOUS
100
AcDbBlockReference
  2
GROUP_20
 10
0.0
 20
0.0
 30
0.0
  0
INSERT
  5
4CE
100
AcDbEntity
  8
LAYER128
  6
CONTINUOUS
100
AcDbBlockReference
  2
GROUP_21
 10
0.0
 20
0.0
 30
0.0
  0
INSERT
  5
4CF
100
AcDbEntity
  8
LAYER128
  6
CONTINUOUS
100
AcDbBlockReference
  2
GROUP_22
 10
0.0
 20
0.0
 30
0.0
  0
INSERT
  5
4D0
100
AcDbEntity
  8
LAYER128
  6
CONTINUOUS
100
AcDbBlockReference
  2
GROUP_23
 10
0.0
 20
0.0
 30
0.0
  0
INSERT
  5
4D1
100
AcDbEntity
  8
LAYER128
  6
CONTINUOUS
100
AcDbBlockReference
  2
GROUP_24
 10
0.0
 20
0.0
 30
0.0
  0
INSERT
  5
4D2
100
AcDbEntity
  8
LAYER128
  6
CONTINUOUS
100
AcDbBlockReference
  2
GROUP_25
 10
0.0
 20
0.0
 30
0.0
  0
INSERT
  5
4D3
100
AcDbEntity
  8
LAYER128
  6
CONTINUOUS
100
AcDbBlockReference
  2
GROUP_26
 10
0.0
 20
0.0
 30
0.0
  0
INSERT
  5
4D4
100
AcDbEntity
  8
LAYER128
  6
CONTINUOUS
100
AcDbBlockReference
  2
GROUP_29
 10
0.0
 20
0.0
 30
0.0
  0
INSERT
  5
4D5
100
AcDbEntity
  8
0
  6
CONTINUOUS
100
AcDbBlockReference
  2
GROUP_9
 10
0.0
 20
0.0
 30
0.0
  0
INSERT
  5
4D6
100
AcDbEntity
  8
0
  6
CONTINUOUS
100
AcDbBlockReference
  2
GROUP_10
 10
0.0
 20
0.0
 30
0.0
  0
INSERT
  5
4D7
100
AcDbEntity
  8
0
  6
CONTINUOUS
100
AcDbBlockReference
  2
GROUP_11
 10
0.0
 20
0.0
 30
0.0
  0
INSERT
  5
4D8
100
AcDbEntity
  8
0
  6
CONTINUOUS
100
AcDbBlockReference
  2
GROUP_12
 10
0.0
 20
0.0
 30
0.0
  0
INSERT
  5
4D9
100
AcDbEntity
  8
0
  6
CONTINUOUS
100
AcDbBlockReference
  2
GROUP_13
 10
0.0
 20
0.0
 30
0.0
  0
INSERT
  5
4DA
100
AcDbEntity
  8
0
  6
CONTINUOUS
100
AcDbBlockReference
  2
GROUP_14
 10
0.0
 20
0.0
 30
0.0
  0
INSERT
  5
4DB
100
AcDbEntity
  8
0
  6
CONTINUOUS
100
AcDbBlockReference
  2
GROUP_15
 10
0.0
 20
0.0
 30
0.0
  0
INSERT
  5
4DC
100
AcDbEntity
  8
0
  6
CONTINUOUS
100
AcDbBlockReference
  2
GROUP_16
 10
0.0
 20
0.0
 30
0.0
  0
INSERT
  5
4DD
100
AcDbEntity
  8
0
  6
CONTINUOUS
100
AcDbBlockReference
  2
GROUP_17
 10
0.0
 20
0.0
 30
0.0
  0
INSERT
  5
4DE
100
AcDbEntity
  8
0
  6
CONTINUOUS
100
AcDbBlockReference
  2
GROUP_18
 10
0.0
 20
0.0
 30
0.0
  0
INSERT
  5
4DF
100
AcDbEntity
  8
0
  6
CONTINUOUS
100
AcDbBlockReference
  2
GROUP_19
 10
0.0
 20
0.0
 30
0.0
  0
INSERT
  5
4E0
100
AcDbEntity
  8
LAYER064
  6
CONTINUOUS
100
AcDbBlockReference
  2
GROUP_27
 10
0.0
 20
0.0
 30
0.0
  0
INSERT
  5
4E1
100
AcDbEntity
  8
LAYER064
  6
CONTINUOUS
100
AcDbBlockReference
  2
GROUP_28
 10
0.0
 20
0.0
 30
0.0
  0
INSERT
  5
4E2
100
AcDbEntity
  8
0
  6
DASHED2
100
AcDbBlockReference
  2
GROUP_30
 10
0.0
 20
0.0
 30
0.0
  0
ENDSEC
  0
SECTION
  2
OBJECTS
  0
DICTIONARY
  5
19
100
AcDbDictionary
  3
ACAD_GROUP
350
1A
  3
ACAD_MLINESTYLE
350
1B
  0
DICTIONARY
  5
1A
102
{ACAD_REACTORS
330
19
102
}
100
AcDbDictionary
  0
DICTIONARY
  5
1B
102
{ACAD_REACTORS
330
19
102
}
100
AcDbDictionary
  3
STANDARD
350
1C
  0
MLINESTYLE
  5
1C
102
{ACAD_REACTORS
330
1B
102
}
100
AcDbMlineStyle
  2
STANDARD
 70
               0
  3

 62
               0
 51
90.0
 52
90.0
 71
               2
 49
0.5
 62
             256
  6
BYLAYER
 49
-0.5
 62
             256
  6
BYLAYER
  0
ENDSEC
  0
EOF
