  0
SECTION
  2
HEADER
  9
$ACADVER
  1
AC1014
  9
$ACADMAINTVER
 70
               0
  9
$DWGCODEPAGE
  3
ANSI_932
  9
$INSBASE
 10
0.0
 20
0.0
 30
0.0
  9
$EXTMIN
 10
-1874.0782964591872
 20
-1617.8186093640809
 30
0.0
  9
$EXTMAX
 10
1718.0817035408127
 20
1412.7413906359191
 30
0.0
  9
$LIMMIN
 10
-1986.3332964591873
 20
-1712.5236093640808
  9
$LIMMAX
 10
1830.3367035408128
 20
1507.446390635919
  9
$ORTHOMODE
 70
               0
  9
$REGENMODE
 70
               1
  9
$FILLMODE
 70
               1
  9
$QTEXTMODE
 70
               0
  9
$MIRRTEXT
 70
               1
  9
$DRAGMODE
 70
               2
  9
$LTSCALE
 40
1.0
  9
$OSMODE
 70
               0
  9
$ATTMODE
 70
               1
  9
$TEXTSIZE
 40
0.2
  9
$TRACEWID
 40
0.05
  9
$TEXTSTYLE
  7
STANDARD
  9
$CLAYER
  8
0
  9
$CELTYPE
  6
CONTINUOUS
  9
$CECOLOR
 62
             256
  9
$CELTSCALE
 40
1.0
  9
$DELOBJ
 70
               1
  9
$DISPSILH
 70
               0
  9
$DIMSCALE
 40
1.0
  9
$DIMASZ
 40
0.18
  9
$DIMEXO
 40
0.0625
  9
$DIMDLI
 40
0.38
  9
$DIMRND
 40
0.0
  9
$DIMDLE
 40
0.0
  9
$DIMEXE
 40
0.18
  9
$DIMTP
 40
0.0
  9
$DIMTM
 40
0.0
  9
$DIMTXT
 40
0.18
  9
$DIMCEN
 40
0.09
  9
$DIMTSZ
 40
0.0
  9
$DIMTOL
 70
               0
  9
$DIMLIM
 70
               0
  9
$DIMTIH
 70
               1
  9
$DIMTOH
 70
               1
  9
$DIMSE1
 70
               0
  9
$DIMSE2
 70
               0
  9
$DIMTAD
 70
               0
  9
$DIMZIN
 70
               0
  9
$DIMBLK
  1

  9
$DIMASO
 70
               1
  9
$DIMSHO
 70
               1
  9
$DIMPOST
  1

  9
$DIMAPOST
  1

  9
$DIMALT
 70
               0
  9
$DIMALTD
 70
               2
  9
$DIMALTF
 40
25.399999999999999
  9
$DIMLFAC
 40
1.0
  9
$DIMTOFL
 70
               0
  9
$DIMTVP
 40
0.0
  9
$DIMTIX
 70
               0
  9
$DIMSOXD
 70
               0
  9
$DIMSAH
 70
               0
  9
$DIMBLK1
  1

  9
$DIMBLK2
  1

  9
$DIMSTYLE
  2
STANDARD
  9
$DIMCLRD
 70
               0
  9
$DIMCLRE
 70
               0
  9
$DIMCLRT
 70
               0
  9
$DIMTFAC
 40
1.0
  9
$DIMGAP
 40
0.09
  9
$DIMJUST
 70
               0
  9
$DIMSD1
 70
               0
  9
$DIMSD2
 70
               0
  9
$DIMTOLJ
 70
               1
  9
$DIMTZIN
 70
               0
  9
$DIMALTZ
 70
               0
  9
$DIMALTTZ
 70
               0
  9
$DIMFIT
 70
               3
  9
$DIMUPT
 70
               0
  9
$DIMUNIT
 70
               2
  9
$DIMDEC
 70
               4
  9
$DIMTDEC
 70
               4
  9
$DIMALTU
 70
               2
  9
$DIMALTTD
 70
               2
  9
$DIMTXSTY
  7
STANDARD
  9
$DIMAUNIT
 70
               0
  9
$LUNITS
 70
               2
  9
$LUPREC
 70
               4
  9
$SKETCHINC
 40
0.1
  9
$FILLETRAD
 40
0.0
  9
$AUNITS
 70
               0
  9
$AUPREC
 70
               0
  9
$MENU
  1
acad
  9
$ELEVATION
 40
0.0
  9
$PELEVATION
 40
0.0
  9
$THICKNESS
 40
0.0
  9
$LIMCHECK
 70
               0
  9
$BLIPMODE
 70
               1
  9
$CHAMFERA
 40
0.0
  9
$CHAMFERB
 40
0.0
  9
$CHAMFERC
 40
0.0
  9
$CHAMFERD
 40
0.0
  9
$SKPOLY
 70
               0
  9
$TDCREATE
 40
0.000000000
  9
$TDUPDATE
 40
0.000000000
  9
$TDINDWG
 40
0.0000000000
  9
$TDUSRTIMER
 40
0.0000000000
  9
$USRTIMER
 70
               1
  9
$ANGBASE
 50
0.0
  9
$ANGDIR
 70
               0
  9
$PDMODE
 70
               0
  9
$PDSIZE
 40
1.0
  9
$PLINEWID
 40
0.0
  9
$COORDS
 70
               1
  9
$SPLFRAME
 70
               0
  9
$SPLINETYPE
 70
               6
  9
$SPLINESEGS
 70
               8
  9
$ATTDIA
 70
               0
  9
$ATTREQ
 70
               1
  9
$HANDLING
 70
               1
  9
$HANDSEED
  5
4E2
  9
$SURFTAB1
 70
               6
  9
$SURFTAB2
 70
               6
  9
$SURFTYPE
 70
               6
  9
$SURFU
 70
               6
  9
$SURFV
 70
               6
  9
$UCSNAME
  2

  9
$UCSORG
 10
0.0
 20
0.0
 30
0.0
  9
$UCSXDIR
 10
1.0
 20
0.0
 30
0.0
  9
$UCSYDIR
 10
0.0
 20
1.0
 30
0.0
  9
$PUCSNAME
  2

  9
$PUCSORG
 10
0.0
 20
0.0
 30
0.0
  9
$PUCSXDIR
 10
1.0
 20
0.0
 30
0.0
  9
$PUCSYDIR
 10
0.0
 20
1.0
 30
0.0
  9
$USERI1
 70
               0
  9
$USERI2
 70
               0
  9
$USERI3
 70
               0
  9
$USERI4
 70
               0
  9
$USERI5
 70
               0
  9
$USERR1
 40
0.0
  9
$USERR2
 40
0.0
  9
$USERR3
 40
0.0
  9
$USERR4
 40
0.0
  9
$USERR5
 40
0.0
  9
$WORLDVIEW
 70
               1
  9
$SHADEDGE
 70
               3
  9
$SHADEDIF
 70
              70
  9
$TILEMODE
 70
               1
  9
$MAXACTVP
 70
              16
  9
$PINSBASE
 10
0.0
 20
0.0
 30
0.0
  9
$PLIMCHECK
 70
               0
  9
$PEXTMIN
 10
1.0000000000000000E+20
 20
1.0000000000000000E+20
 30
1.0000000000000000E+20
  9
$PEXTMAX
 10
-1.0000000000000000E+20
 20
-1.0000000000000000E+20
 30
-1.0000000000000000E+20
  9
$PLIMMIN
 10
0.0
 20
0.0
  9
$PLIMMAX
 10
12.0
 20
9.0
  9
$UNITMODE
 70
               0
  9
$VISRETAIN
 70
               0
  9
$PLINEGEN
 70
               1
  9
$PSLTSCALE
 70
               0
  9
$TREEDEPTH
 70
            3020
  9
$PICKSTYLE
 70
               1
  9
$CMLSTYLE
  2
STANDARD
  9
$CMLJUST
 70
               0
  9
$CMLSCALE
 40
1.0
  9
$PROXYGRAPHICS
 70
               0
  9
$MEASUREMENT
 70
               0
  0
ENDSEC
  0
SECTION
  2
CLASSES
  0
CLASS
  1
LWPOLYLINE
  2
AcDbPolyline
  3
"AutoCAD"
 90
        0
280
               0
281
               1
  0
CLASS
  1
IMAGE
  2
AcDbRasterImage
  3
ISM
 90
      127
280
               0
281
               1
  0
CLASS
  1
OLE2FRAME
  2
AcDbOle2Frame
  3
""
 90
        0
280
               0
281
               1
  0
CLASS
  1
HATCH
  2
AcDbHatch
  3
"ACAD_SEDONA"
 90
        0
280
               0
281
               1
  0
CLASS
  1
DICTIONARYVAR
  2
AcDbDictionaryVar
  3
"AutoCAD"
 90
        0
280
               0
281
               0
  0
CLASS
  1
RASTERVARIABLES
  2
AcDbRasterVariables
  3
ISM
 90
        0
280
               0
281
               0
  0
CLASS
  1
IMAGEDEF
  2
AcDbRasterImageDef
  3
ISM
 90
        0
280
               0
281
               0
  0
CLASS
  1
IMAGEDEF_REACTOR
  2
AcDbRasterImageDefReactor
  3
ISM
 90
        1
280
               0
281
               0
  0
CLASS
  1
IDBUFFER
  2
AcDbIdBuffer
  3
"Acad"
 90
        0
280
               0
281
               0
  0
CLASS
  1
SPATIAL_FILTER
  2
AcDbSpatialFilter
  3
"Acad"
 90
        0
280
               0
281
               0
  0
CLASS
  1
XRECORD
  2
AcDbXrecord
  3
"<Built In>"
 90
        0
280
               0
281
               0
  0
CLASS
  1
SORTENTSTABLE
  2
AcDbSortentsTable
  3
"AutoCAD"
 90
        0
280
               0
281
               0
  0
CLASS
  1
LAYER_INDEX
  2
AcDbLayerIndex
  3
"Acad"
 90
        0
280
               0
281
               0
  0
CLASS
  1
SPATIAL_INDEX
  2
AcDbSpatialIndex
  3
"Acad"
 90
        0
280
               0
281
               0
  0
CLASS
  1
OBJECT_PTR
  2
CAseDLPNTableRecord
  3
"ASE-LPNTableRecord"
 90
        1
280
               0
281
               0
  0
ENDSEC
  0
SECTION
  2
TABLES
  0
TABLE
  2
VPORT
  5
7
100
AcDbSymbolTable
 70
               1
  0
VPORT
  5
15
100
AcDbSymbolTableRecord
100
AcDbViewportTableRecord
  2
*ACTIVE
 70
               0
 10
0.0
 20
0.0
 11
1.0
 21
1.0
 12
-77.998296459187259
 22
-102.53860936408091
 13
0.0
 23
0.0
 14
1.0
 24
1.0
 15
0.0
 25
0.0
 16
0.0
 26
0.0
 36
1.0
 17
0.0
 27
0.0
 37
0.0
 40
3219.9699999999998
 41
1.1853122855181881
 42
50.0
 43
0.0
 44
0.0
 50
0.0
 51
0.0
 71
               0
 72
             100
 73
               1
 74
               1
 75
               0
 76
               0
 77
               0
 78
               0
  0
ENDTAB
  0
TABLE
  2
LTYPE
  5
4
100
AcDbSymbolTable
 70
              28
  0
LTYPE
  5
11
100
AcDbSymbolTableRecord
100
AcDbLinetypeTableRecord
  2
BYBLOCK
 70
               0
  3

 72
              65
 73
               0
 40
0.0
  0
LTYPE
  5
12
100
AcDbSymbolTableRecord
100
AcDbLinetypeTableRecord
  2
BYLAYER
 70
               0
  3

 72
              65
 73
               0
 40
0.0
  0
LTYPE
  5
13
100
AcDbSymbolTableRecord
100
AcDbLinetypeTableRecord
  2
CONTINUOUS
 70
               0
  3
Solid line
 72
              65
 73
               0
 40
0.0
  0
LTYPE
  5
1D
100
AcDbSymbolTableRecord
100
AcDbLinetypeTableRecord
  2
HIDDENX2
 70
               0
  3
CADPAC FUSION LINETYPE
 72
              65
 73
               2
 40
201.59999999999999
 49
151.19999999999999
 74
               0
 49
-50.399999999999999
 74
               0
  0
LTYPE
  5
1E
100
AcDbSymbolTableRecord
100
AcDbLinetypeTableRecord
  2
HIDDEN
 70
               0
  3
CADPAC FUSION LINETYPE
 72
              65
 73
               2
 40
151.19999999999999
 49
100.8
 74
               0
 49
-50.399999999999999
 74
               0
  0
LTYPE
  5
1F
100
AcDbSymbolTableRecord
100
AcDbLinetypeTableRecord
  2
HIDDEN2
 70
               0
  3
CADPAC FUSION LINETYPE
 72
              65
 73
               2
 40
126.0
 49
75.599999999999994
 74
               0
 49
-50.399999999999999
 74
               0
  0
LTYPE
  5
20
100
AcDbSymbolTableRecord
100
AcDbLinetypeTableRecord
  2
DASHED
 70
               0
  3
CADPAC FUSION LINETYPE
 72
              65
 73
               2
 40
151.19999999999999
 49
100.8
 74
               0
 49
-50.399999999999999
 74
               0
  0
LTYPE
  5
21
100
AcDbSymbolTableRecord
100
AcDbLinetypeTableRecord
  2
DASHED2
 70
               0
  3
CADPAC FUSION LINETYPE
 72
              65
 73
               2
 40
113.39999999999999
 49
75.599999999999994
 74
               0
 49
-37.799999999999997
 74
               0
  0
LTYPE
  5
22
100
AcDbSymbolTableRecord
100
AcDbLinetypeTableRecord
  2
DASHEDX2
 70
               0
  3
CADPAC FUSION LINETYPE
 72
              65
 73
               2
 40
226.79999999999998
 49
151.19999999999999
 74
               0
 49
-75.599999999999994
 74
               0
  0
LTYPE
  5
23
100
AcDbSymbolTableRecord
100
AcDbLinetypeTableRecord
  2
DOTX2
 70
               0
  3
CADPAC FUSION LINETYPE
 72
              65
 73
               2
 40
63.0
 49
0.0
 74
               0
 49
-63.0
 74
               0
  0
LTYPE
  5
24
100
AcDbSymbolTableRecord
100
AcDbLinetypeTableRecord
  2
DOT
 70
               0
  3
CADPAC FUSION LINETYPE
 72
              65
 73
               2
 40
50.399999999999999
 49
0.0
 74
               0
 49
-50.399999999999999
 74
               0
  0
LTYPE
  5
25
100
AcDbSymbolTableRecord
100
AcDbLinetypeTableRecord
  2
DOTS
 70
               0
  3
CADPAC FUSION LINETYPE
 72
              65
 73
               2
 40
50.399999999999999
 49
0.0
 74
               0
 49
-50.399999999999999
 74
               0
  0
LTYPE
  5
26
100
AcDbSymbolTableRecord
100
AcDbLinetypeTableRecord
  2
DOT2
 70
               0
  3
CADPAC FUSION LINETYPE
 72
              65
 73
               2
 40
37.799999999999997
 49
0.0
 74
               0
 49
-37.799999999999997
 74
               0
  0
LTYPE
  5
27
100
AcDbSymbolTableRecord
100
AcDbLinetypeTableRecord
  2
CENTERX2
 70
               0
  3
CADPAC FUSION LINETYPE
 72
              65
 73
               4
 40
302.39999999999998
 49
126.0
 74
               0
 49
-63.0
 74
               0
 49
50.399999999999999
 74
               0
 49
-63.0
 74
               0
  0
LTYPE
  5
28
100
AcDbSymbolTableRecord
100
AcDbLinetypeTableRecord
  2
CENTER
 70
               0
  3
CADPAC FUSION LINETYPE
 72
              65
 73
               4
 40
231.83999999999997
 49
100.8
 74
               0
 49
-50.399999999999999
 74
               0
 49
30.239999999999998
 74
               0
 49
-50.399999999999999
 74
               0
  0
LTYPE
  5
29
100
AcDbSymbolTableRecord
100
AcDbLinetypeTableRecord
  2
CENTER2
 70
               0
  3
CADPAC FUSION LINETYPE
 72
              65
 73
               4
 40
161.27999999999997
 49
75.599999999999994
 74
               0
 49
-37.799999999999997
 74
               0
 49
10.08
 74
               0
 49
-37.799999999999997
 74
               0
  0
LTYPE
  5
2A
100
AcDbSymbolTableRecord
100
AcDbLinetypeTableRecord
  2
DASHDOTX2
 70
               0
  3
CADPAC FUSION LINETYPE
 72
              65
 73
               4
 40
252.0
 49
126.0
 74
               0
 49
-63.0
 74
               0
 49
0.0
 74
               0
 49
-63.0
 74
               0
  0
LTYPE
  5
2B
100
AcDbSymbolTableRecord
100
AcDbLinetypeTableRecord
  2
DASHDOT
 70
               0
  3
CADPAC FUSION LINETYPE
 72
              65
 73
               4
 40
201.59999999999999
 49
100.8
 74
               0
 49
-50.399999999999999
 74
               0
 49
0.0
 74
               0
 49
-50.399999999999999
 74
               0
  0
LTYPE
  5
2C
100
AcDbSymbolTableRecord
100
AcDbLinetypeTableRecord
  2
DASHDOT2
 70
               0
  3
CADPAC FUSION LINETYPE
 72
              65
 73
               4
 40
151.19999999999999
 49
75.599999999999994
 74
               0
 49
-37.799999999999997
 74
               0
 49
0.0
 74
               0
 49
-37.799999999999997
 74
               0
  0
LTYPE
  5
2D
100
AcDbSymbolTableRecord
100
AcDbLinetypeTableRecord
  2
DIVIDEX2
 70
               0
  3
CADPAC FUSION LINETYPE
 72
              65
 73
               6
 40
315.0
 49
126.0
 74
               0
 49
-63.0
 74
               0
 49
0.0
 74
               0
 49
-63.0
 74
               0
 49
0.0
 74
               0
 49
-63.0
 74
               0
  0
LTYPE
  5
2E
100
AcDbSymbolTableRecord
100
AcDbLinetypeTableRecord
  2
DIVIDE
 70
               0
  3
CADPAC FUSION LINETYPE
 72
              65
 73
               6
 40
252.0
 49
100.8
 74
               0
 49
-50.399999999999999
 74
               0
 49
0.0
 74
               0
 49
-50.399999999999999
 74
               0
 49
0.0
 74
               0
 49
-50.399999999999999
 74
               0
  0
LTYPE
  5
2F
100
AcDbSymbolTableRecord
100
AcDbLinetypeTableRecord
  2
DIVIDE2
 70
               0
  3
CADPAC FUSION LINETYPE
 72
              65
 73
               6
 40
189.0
 49
75.599999999999994
 74
               0
 49
-37.799999999999997
 74
               0
 49
0.0
 74
               0
 49
-37.799999999999997
 74
               0
 49
0.0
 74
               0
 49
-37.799999999999997
 74
               0
  0
LTYPE
  5
30
100
AcDbSymbolTableRecord
100
AcDbLinetypeTableRecord
  2
BORDERX2
 70
               0
  3
CADPAC FUSION LINETYPE
 72
              65
 73
               6
 40
441.0
 49
126.0
 74
               0
 49
-63.0
 74
               0
 49
126.0
 74
               0
 49
-63.0
 74
               0
 49
0.0
 74
               0
 49
-63.0
 74
               0
  0
LTYPE
  5
31
100
AcDbSymbolTableRecord
100
AcDbLinetypeTableRecord
  2
BORDER
 70
               0
  3
CADPAC FUSION LINETYPE
 72
              65
 73
               6
 40
352.79999999999995
 49
100.8
 74
               0
 49
-50.399999999999999
 74
               0
 49
100.8
 74
               0
 49
-50.399999999999999
 74
               0
 49
0.0
 74
               0
 49
-50.399999999999999
 74
               0
  0
LTYPE
  5
32
100
AcDbSymbolTableRecord
100
AcDbLinetypeTableRecord
  2
BORDER2
 70
               0
  3
CADPAC FUSION LINETYPE
 72
              65
 73
               6
 40
264.59999999999997
 49
75.599999999999994
 74
               0
 49
-37.799999999999997
 74
               0
 49
75.599999999999994
 74
               0
 49
-37.799999999999997
 74
               0
 49
0.0
 74
               0
 49
-37.799999999999997
 74
               0
  0
LTYPE
  5
33
100
AcDbSymbolTableRecord
100
AcDbLinetypeTableRecord
  2
PHANTOMX2
 70
               0
  3
CADPAC FUSION LINETYPE
 72
              65
 73
               6
 40
378.0
 49
126.0
 74
               0
 49
-50.399999999999999
 74
               0
 49
50.399999999999999
 74
               0
 49
-50.399999999999999
 74
               0
 49
50.399999999999999
 74
               0
 49
-50.399999999999999
 74
               0
  0
LTYPE
  5
34
100
AcDbSymbolTableRecord
100
AcDbLinetypeTableRecord
  2
PHANTOM
 70
               0
  3
CADPAC FUSION LINETYPE
 72
              65
 73
               6
 40
312.47999999999996
 49
100.8
 74
               0
 49
-50.399999999999999
 74
               0
 49
30.239999999999998
 74
               0
 49
-50.399999999999999
 74
               0
 49
30.239999999999998
 74
               0
 49
-50.399999999999999
 74
               0
  0
LTYPE
  5
35
100
AcDbSymbolTableRecord
100
AcDbLinetypeTableRecord
  2
PHANTOM2
 70
               0
  3
CADPAC FUSION LINETYPE
 72
              65
 73
               6
 40
267.12
 49
75.599999999999994
 74
               0
 49
-50.399999999999999
 74
               0
 49
20.16
 74
               0
 49
-50.399999999999999
 74
               0
 49
20.16
 74
               0
 49
-50.399999999999999
 74
               0
  0
ENDTAB
  0
TABLE
  2
LAYER
  5
2
100
AcDbSymbolTable
 70
             256
  0
LAYER
  5
14
100
AcDbSymbolTableRecord
100
AcDbLayerTableRecord
  2
0
 70
               0
 62
               7
  6
CONTINUOUS
  0
LAYER
  5
36
100
AcDbSymbolTableRecord
100
AcDbLayerTableRecord
  2
LAYER001
 70
               0
 62
               7
  6
CONTINUOUS
  0
LAYER
  5
37
100
AcDbSymbolTableRecord
100
AcDbLayerTableRecord
  2
LAYER002
 70
               0
 62
               7
  6
CONTINUOUS
  0
LAYER
  5
38
100
AcDbSymbolTableRecord
100
AcDbLayerTableRecord
  2
LAYER003
 70
               0
 62
               7
  6
CONTINUOUS
  0
LAYER
  5
39
100
AcDbSymbolTableRecord
100
AcDbLayerTableRecord
  2
LAYER004
 70
               0
 62
               7
  6
CONTINUOUS
  0
LAYER
  5
3A
100
AcDbSymbolTableRecord
100
AcDbLayerTableRecord
  2
LAYER005
 70
               0
 62
               7
  6
CONTINUOUS
  0
LAYER
  5
3B
100
AcDbSymbolTableRecord
100
AcDbLayerTableRecord
  2
LAYER006
 70
               0
 62
               7
  6
CONTINUOUS
  0
LAYER
  5
3C
100
AcDbSymbolTableRecord
100
AcDbLayerTableRecord
  2
LAYER007
 70
               0
 62
               7
  6
CONTINUOUS
  0
LAYER
  5
3D
100
AcDbSymbolTableRecord
100
AcDbLayerTableRecord
  2
LAYER008
 70
               0
 62
               7
  6
CONTINUOUS
  0
LAYER
  5
3E
100
AcDbSymbolTableRecord
100
AcDbLayerTableRecord
  2
LAYER009
 70
               0
 62
               7
  6
CONTINUOUS
  0
LAYER
  5
3F
100
AcDbSymbolTableRecord
100
AcDbLayerTableRecord
  2
LAYER010
 70
               0
 62
               7
  6
CONTINUOUS
  0
LAYER
  5
40
100
AcDbSymbolTableRecord
100
AcDbLayerTableRecord
  2
LAYER011
 70
               0
 62
               7
  6
CONTINUOUS
  0
LAYER
  5
41
100
AcDbSymbolTableRecord
100
AcDbLayerTableRecord
  2
LAYER012
 70
               0
 62
               7
  6
CONTINUOUS
  0
LAYER
  5
42
100
AcDbSymbolTableRecord
100
AcDbLayerTableRecord
  2
LAYER013
 70
               0
 62
               7
  6
CONTINUOUS
  0
LAYER
  5
43
100
AcDbSymbolTableRecord
100
AcDbLayerTableRecord
  2
LAYER014
 70
               0
 62
               7
  6
CONTINUOUS
  0
LAYER
  5
44
100
AcDbSymbolTableRecord
100
AcDbLayerTableRecord
  2
LAYER015
 70
               0
 62
               7
  6
CONTINUOUS
  0
LAYER
  5
45
100
AcDbSymbolTableRecord
100
AcDbLayerTableRecord
  2
LAYER016
 70
               0
 62
               7
  6
CONTINUOUS
  0
LAYER
  5
46
100
AcDbSymbolTableRecord
100
AcDbLayerTableRecord
  2
LAYER017
 70
               0
 62
               7
  6
CONTINUOUS
  0
LAYER
  5
47
100
AcDbSymbolTableRecord
100
AcDbLayerTableRecord
  2
LAYER018
 70
               0
 62
               7
  6
CONTINUOUS
  0
LAYER
  5
48
100
AcDbSymbolTableRecord
100
AcDbLayerTableRecord
  2
LAYER019
 70
               0
 62
               7
  6
CONTINUOUS
  0
LAYER
  5
49
100
AcDbSymbolTableRecord
100
AcDbLayerTableRecord
  2
LAYER020
 70
               0
 62
               7
  6
CONTINUOUS
  0
LAYER
  5
4A
100
AcDbSymbolTableRecord
100
AcDbLayerTableRecord
  2
LAYER021
 70
               0
 62
               7
  6
CONTINUOUS
  0
LAYER
  5
4B
100
AcDbSymbolTableRecord
100
AcDbLayerTableRecord
  2
LAYER022
 70
               0
 62
               7
  6
CONTINUOUS
  0
LAYER
  5
4C
100
AcDbSymbolTableRecord
100
AcDbLayerTableRecord
  2
LAYER023
 70
               0
 62
               7
  6
CONTINUOUS
  0
LAYER
  5
4D
100
AcDbSymbolTableRecord
100
AcDbLayerTableRecord
  2
LAYER024
 70
               0
 62
               7
  6
CONTINUOUS
  0
LAYER
  5
4E
100
AcDbSymbolTableRecord
100
AcDbLayerTableRecord
  2
LAYER025
 70
               0
 62
               7
  6
CONTINUOUS
  0
LAYER
  5
4F
100
AcDbSymbolTableRecord
100
AcDbLayerTableRecord
  2
LAYER026
 70
               0
 62
               7
  6
CONTINUOUS
  0
LAYER
  5
50
100
AcDbSymbolTableRecord
100
AcDbLayerTableRecord
  2
LAYER027
 70
               0
 62
               7
  6
CONTINUOUS
  0
LAYER
  5
51
100
AcDbSymbolTableRecord
100
AcDbLayerTableRecord
  2
LAYER028
 70
               0
 62
               7
  6
CONTINUOUS
  0
LAYER
  5
52
100
AcDbSymbolTableRecord
100
AcDbLayerTableRecord
  2
LAYER029
 70
               0
 62
               7
  6
CONTINUOUS
  0
LAYER
  5
53
100
AcDbSymbolTableRecord
100
AcDbLayerTableRecord
  2
LAYER030
 70
               0
 62
               7
  6
CONTINUOUS
  0
LAYER
  5
54
100
AcDbSymbolTableRecord
100
AcDbLayerTableRecord
  2
LAYER031
 70
               0
 62
               7
  6
CONTINUOUS
  0
LAYER
  5
55
100
AcDbSymbolTableRecord
100
AcDbLayerTableRecord
  2
LAYER032
 70
               0
 62
               7
  6
CONTINUOUS
  0
LAYER
  5
56
100
AcDbSymbolTableRecord
100
AcDbLayerTableRecord
  2
LAYER033
 70
               0
 62
               7
  6
CONTINUOUS
  0
LAYER
  5
57
100
AcDbSymbolTableRecord
100
AcDbLayerTableRecord
  2
LAYER034
 70
               0
 62
               7
  6
CONTINUOUS
  0
LAYER
  5
58
100
AcDbSymbolTableRecord
100
AcDbLayerTableRecord
  2
LAYER035
 70
               0
 62
               7
  6
CONTINUOUS
  0
LAYER
  5
59
100
AcDbSymbolTableRecord
100
AcDbLayerTableRecord
  2
LAYER036
 70
               0
 62
               7
  6
CONTINUOUS
  0
LAYER
  5
5A
100
AcDbSymbolTableRecord
100
AcDbLayerTableRecord
  2
LAYER037
 70
               0
 62
               7
  6
CONTINUOUS
  0
LAYER
  5
5B
100
AcDbSymbolTableRecord
100
AcDbLayerTableRecord
  2
LAYER038
 70
               0
 62
               7
  6
CONTINUOUS
  0
LAYER
  5
5C
100
AcDbSymbolTableRecord
100
AcDbLayerTableRecord
  2
LAYER039
 70
               0
 62
               7
  6
CONTINUOUS
  0
LAYER
  5
5D
100
AcDbSymbolTableRecord
100
AcDbLayerTableRecord
  2
LAYER040
 70
               0
 62
               7
  6
CONTINUOUS
  0
LAYER
  5
5E
100
AcDbSymbolTableRecord
100
AcDbLayerTableRecord
  2
LAYER041
 70
               0
 62
               7
  6
CONTINUOUS
  0
LAYER
  5
5F
100
AcDbSymbolTableRecord
100
AcDbLayerTableRecord
  2
LAYER042
 70
               0
 62
               7
  6
CONTINUOUS
  0
LAYER
  5
60
100
AcDbSymbolTableRecord
100
AcDbLayerTableRecord
  2
LAYER043
 70
               0
 62
               7
  6
CONTINUOUS
  0
LAYER
  5
61
100
AcDbSymbolTableRecord
100
AcDbLayerTableRecord
  2
LAYER044
 70
               0
 62
               7
  6
CONTINUOUS
  0
LAYER
  5
62
100
AcDbSymbolTableRecord
100
AcDbLayerTableRecord
  2
LAYER045
 70
               0
 62
               7
  6
CONTINUOUS
  0
LAYER
  5
63
100
AcDbSymbolTableRecord
100
AcDbLayerTableRecord
  2
LAYER046
 70
               0
 62
               7
  6
CONTINUOUS
  0
LAYER
  5
64
100
AcDbSymbolTableRecord
100
AcDbLayerTableRecord
  2
LAYER047
 70
               0
 62
               7
  6
CONTINUOUS
  0
LAYER
  5
65
100
AcDbSymbolTableRecord
100
AcDbLayerTableRecord
  2
LAYER048
 70
               0
 62
               7
  6
CONTINUOUS
  0
LAYER
  5
66
100
AcDbSymbolTableRecord
100
AcDbLayerTableRecord
  2
LAYER049
 70
               0
 62
               7
  6
CONTINUOUS
  0
LAYER
  5
67
100
AcDbSymbolTableRecord
100
AcDbLayerTableRecord
  2
LAYER050
 70
               0
 62
               7
  6
CONTINUOUS
  0
LAYER
  5
68
100
AcDbSymbolTableRecord
100
AcDbLayerTableRecord
  2
LAYER051
 70
               0
 62
               7
  6
CONTINUOUS
  0
LAYER
  5
69
100
AcDbSymbolTableRecord
100
AcDbLayerTableRecord
  2
LAYER052
 70
               0
 62
               7
  6
CONTINUOUS
  0
LAYER
  5
6A
100
AcDbSymbolTableRecord
100
AcDbLayerTableRecord
  2
LAYER053
 70
               0
 62
               7
  6
CONTINUOUS
  0
LAYER
  5
6B
100
AcDbSymbolTableRecord
100
AcDbLayerTableRecord
  2
LAYER054
 70
               0
 62
               7
  6
CONTINUOUS
  0
LAYER
  5
6C
100
AcDbSymbolTableRecord
100
AcDbLayerTableRecord
  2
LAYER055
 70
               0
 62
               7
  6
CONTINUOUS
  0
LAYER
  5
6D
100
AcDbSymbolTableRecord
100
AcDbLayerTableRecord
  2
LAYER056
 70
               0
 62
               7
  6
CONTINUOUS
  0
LAYER
  5
6E
100
AcDbSymbolTableRecord
100
AcDbLayerTableRecord
  2
LAYER057
 70
               0
 62
               7
  6
CONTINUOUS
  0
LAYER
  5
6F
100
AcDbSymbolTableRecord
100
AcDbLayerTableRecord
  2
LAYER058
 70
               0
 62
               7
  6
CONTINUOUS
  0
LAYER
  5
70
100
AcDbSymbolTableRecord
100
AcDbLayerTableRecord
  2
LAYER059
 70
               0
 62
               7
  6
CONTINUOUS
  0
LAYER
  5
71
100
AcDbSymbolTableRecord
100
AcDbLayerTableRecord
  2
LAYER060
 70
               0
 62
               7
  6
CONTINUOUS
  0
LAYER
  5
72
100
AcDbSymbolTableRecord
100
AcDbLayerTableRecord
  2
LAYER061
 70
               0
 62
               7
  6
CONTINUOUS
  0
LAYER
  5
73
100
AcDbSymbolTableRecord
100
AcDbLayerTableRecord
  2
LAYER062
 70
               0
 62
               7
  6
CONTINUOUS
  0
LAYER
  5
74
100
AcDbSymbolTableRecord
100
AcDbLayerTableRecord
  2
LAYER063
 70
               0
 62
               7
  6
CONTINUOUS
  0
LAYER
  5
75
100
AcDbSymbolTableRecord
100
AcDbLayerTableRecord
  2
LAYER064
 70
               0
 62
               7
  6
CONTINUOUS
  0
LAYER
  5
76
100
AcDbSymbolTableRecord
100
AcDbLayerTableRecord
  2
LAYER065
 70
               0
 62
               7
  6
CONTINUOUS
  0
LAYER
  5
77
100
AcDbSymbolTableRecord
100
AcDbLayerTableRecord
  2
LAYER066
 70
               0
 62
               7
  6
CONTINUOUS
  0
LAYER
  5
78
100
AcDbSymbolTableRecord
100
AcDbLayerTableRecord
  2
LAYER067
 70
               0
 62
               7
  6
CONTINUOUS
  0
LAYER
  5
79
100
AcDbSymbolTableRecord
100
AcDbLayerTableRecord
  2
LAYER068
 70
               0
 62
               7
  6
CONTINUOUS
  0
LAYER
  5
7A
100
AcDbSymbolTableRecord
100
AcDbLayerTableRecord
  2
LAYER069
 70
               0
 62
               7
  6
CONTINUOUS
  0
LAYER
  5
7B
100
AcDbSymbolTableRecord
100
AcDbLayerTableRecord
  2
LAYER070
 70
               0
 62
               7
  6
CONTINUOUS
  0
LAYER
  5
7C
100
AcDbSymbolTableRecord
100
AcDbLayerTableRecord
  2
LAYER071
 70
               0
 62
               7
  6
CONTINUOUS
  0
LAYER
  5
7D
100
AcDbSymbolTableRecord
100
AcDbLayerTableRecord
  2
LAYER072
 70
               0
 62
               7
  6
CONTINUOUS
  0
LAYER
  5
7E
100
AcDbSymbolTableRecord
100
AcDbLayerTableRecord
  2
LAYER073
 70
               0
 62
               7
  6
CONTINUOUS
  0
LAYER
  5
7F
100
AcDbSymbolTableRecord
100
AcDbLayerTableRecord
  2
LAYER074
 70
               0
 62
               7
  6
CONTINUOUS
  0
LAYER
  5
80
100
AcDbSymbolTableRecord
100
AcDbLayerTableRecord
  2
LAYER075
 70
               0
 62
               7
  6
CONTINUOUS
  0
LAYER
  5
81
100
AcDbSymbolTableRecord
100
AcDbLayerTableRecord
  2
LAYER076
 70
               0
 62
               7
  6
CONTINUOUS
  0
LAYER
  5
82
100
AcDbSymbolTableRecord
100
AcDbLayerTableRecord
  2
LAYER077
 70
               0
 62
               7
  6
CONTINUOUS
  0
LAYER
  5
83
100
AcDbSymbolTableRecord
100
AcDbLayerTableRecord
  2
LAYER078
 70
               0
 62
               7
  6
CONTINUOUS
  0
LAYER
  5
84
100
AcDbSymbolTableRecord
100
AcDbLayerTableRecord
  2
LAYER079
 70
               0
 62
               7
  6
CONTINUOUS
  0
LAYER
  5
85
100
AcDbSymbolTableRecord
100
AcDbLayerTableRecord
  2
LAYER080
 70
               0
 62
               7
  6
CONTINUOUS
  0
LAYER
  5
86
100
AcDbSymbolTableRecord
100
AcDbLayerTableRecord
  2
LAYER081
 70
               0
 62
               7
  6
CONTINUOUS
  0
LAYER
  5
87
100
AcDbSymbolTableRecord
100
AcDbLayerTableRecord
  2
LAYER082
 70
               0
 62
               7
  6
CONTINUOUS
  0
LAYER
  5
88
100
AcDbSymbolTableRecord
100
AcDbLayerTableRecord
  2
LAYER083
 70
               0
 62
               7
  6
CONTINUOUS
  0
LAYER
  5
89
100
AcDbSymbolTableRecord
100
AcDbLayerTableRecord
  2
LAYER084
 70
               0
 62
               7
  6
CONTINUOUS
  0
LAYER
  5
8A
100
AcDbSymbolTableRecord
100
AcDbLayerTableRecord
  2
LAYER085
 70
               0
 62
               7
  6
CONTINUOUS
  0
LAYER
  5
8B
100
AcDbSymbolTableRecord
100
AcDbLayerTableRecord
  2
LAYER086
 70
               0
 62
               7
  6
CONTINUOUS
  0
LAYER
  5
8C
100
AcDbSymbolTableRecord
100
AcDbLayerTableRecord
  2
LAYER087
 70
               0
 62
               7
  6
CONTINUOUS
  0
LAYER
  5
8D
100
AcDbSymbolTableRecord
100
AcDbLayerTableRecord
  2
LAYER088
 70
               0
 62
               7
  6
CONTINUOUS
  0
LAYER
  5
8E
100
AcDbSymbolTableRecord
100
AcDbLayerTableRecord
  2
LAYER089
 70
               0
 62
               7
  6
CONTINUOUS
  0
LAYER
  5
8F
100
AcDbSymbolTableRecord
100
AcDbLayerTableRecord
  2
LAYER090
 70
               0
 62
               7
  6
CONTINUOUS
  0
LAYER
  5
90
100
AcDbSymbolTableRecord
100
AcDbLayerTableRecord
  2
LAYER091
 70
               0
 62
               7
  6
CONTINUOUS
  0
LAYER
  5
91
100
AcDbSymbolTableRecord
100
AcDbLayerTableRecord
  2
LAYER092
 70
               0
 62
               7
  6
CONTINUOUS
  0
LAYER
  5
92
100
AcDbSymbolTableRecord
100
AcDbLayerTableRecord
  2
LAYER093
 70
               0
 62
               7
  6
CONTINUOUS
  0
LAYER
  5
93
100
AcDbSymbolTableRecord
100
AcDbLayerTableRecord
  2
LAYER094
 70
               0
 62
               7
  6
CONTINUOUS
  0
LAYER
  5
94
100
AcDbSymbolTableRecord
100
AcDbLayerTableRecord
  2
LAYER095
 70
               0
 62
               7
  6
CONTINUOUS
  0
LAYER
  5
95
100
AcDbSymbolTableRecord
100
AcDbLayerTableRecord
  2
LAYER096
 70
               0
 62
               7
  6
CONTINUOUS
  0
LAYER
  5
96
100
AcDbSymbolTableRecord
100
AcDbLayerTableRecord
  2
LAYER097
 70
               0
 62
               7
  6
CONTINUOUS
  0
LAYER
  5
97
100
AcDbSymbolTableRecord
100
AcDbLayerTableRecord
  2
LAYER098
 70
               0
 62
               7
  6
CONTINUOUS
  0
LAYER
  5
98
100
AcDbSymbolTableRecord
100
AcDbLayerTableRecord
  2
LAYER099
 70
               0
 62
               7
  6
CONTINUOUS
  0
LAYER
  5
99
100
AcDbSymbolTableRecord
100
AcDbLayerTableRecord
  2
LAYER100
 70
               0
 62
               7
  6
CONTINUOUS
  0
LAYER
  5
9A
100
AcDbSymbolTableRecord
100
AcDbLayerTableRecord
  2
LAYER101
 70
               0
 62
               7
  6
CONTINUOUS
  0
LAYER
  5
9B
100
AcDbSymbolTableRecord
100
AcDbLayerTableRecord
  2
LAYER102
 70
               0
 62
               7
  6
CONTINUOUS
  0
LAYER
  5
9C
100
AcDbSymbolTableRecord
100
AcDbLayerTableRecord
  2
LAYER103
 70
               0
 62
               7
  6
CONTINUOUS
  0
LAYER
  5
9D
100
AcDbSymbolTableRecord
100
AcDbLayerTableRecord
  2
LAYER104
 70
               0
 62
               7
  6
CONTINUOUS
  0
LAYER
  5
9E
100
AcDbSymbolTableRecord
100
AcDbLayerTableRecord
  2
LAYER105
 70
               0
 62
               7
  6
CONTINUOUS
  0
LAYER
  5
9F
100
AcDbSymbolTableRecord
100
AcDbLayerTableRecord
  2
LAYER106
 70
               0
 62
               7
  6
CONTINUOUS
  0
LAYER
  5
A0
100
AcDbSymbolTableRecord
100
AcDbLayerTableRecord
  2
LAYER107
 70
               0
 62
               7
  6
CONTINUOUS
  0
LAYER
  5
A1
100
AcDbSymbolTableRecord
100
AcDbLayerTableRecord
  2
LAYER108
 70
               0
 62
               7
  6
CONTINUOUS
  0
LAYER
  5
A2
100
AcDbSymbolTableRecord
100
AcDbLayerTableRecord
  2
LAYER109
 70
               0
 62
               7
  6
CONTINUOUS
  0
LAYER
  5
A3
100
AcDbSymbolTableRecord
100
AcDbLayerTableRecord
  2
LAYER110
 70
               0
 62
               7
  6
CONTINUOUS
  0
LAYER
  5
A4
100
AcDbSymbolTableRecord
100
AcDbLayerTableRecord
  2
LAYER111
 70
               0
 62
               7
  6
CONTINUOUS
  0
LAYER
  5
A5
100
AcDbSymbolTableRecord
100
AcDbLayerTableRecord
  2
LAYER112
 70
               0
 62
               7
  6
CONTINUOUS
  0
LAYER
  5
A6
100
AcDbSymbolTableRecord
100
AcDbLayerTableRecord
  2
LAYER113
 70
               0
 62
               7
  6
CONTINUOUS
  0
LAYER
  5
A7
100
AcDbSymbolTableRecord
100
AcDbLayerTableRecord
  2
LAYER114
 70
               0
 62
               7
  6
CONTINUOUS
  0
LAYER
  5
A8
100
AcDbSymbolTableRecord
100
AcDbLayerTableRecord
  2
LAYER115
 70
               0
 62
               7
  6
CONTINUOUS
  0
LAYER
  5
A9
100
AcDbSymbolTableRecord
100
AcDbLayerTableRecord
  2
LAYER116
 70
               0
 62
               7
  6
CONTINUOUS
  0
LAYER
  5
AA
100
AcDbSymbolTableRecord
100
AcDbLayerTableRecord
  2
LAYER117
 70
               0
 62
               7
  6
CONTINUOUS
  0
LAYER
  5
AB
100
AcDbSymbolTableRecord
100
AcDbLayerTableRecord
  2
LAYER118
 70
               0
 62
               7
  6
CONTINUOUS
  0
LAYER
  5
AC
100
AcDbSymbolTableRecord
100
AcDbLayerTableRecord
  2
LAYER119
 70
               0
 62
               7
  6
CONTINUOUS
  0
LAYER
  5
AD
100
AcDbSymbolTableRecord
100
AcDbLayerTableRecord
  2
LAYER120
 70
               0
 62
               7
  6
CONTINUOUS
  0
LAYER
  5
AE
100
AcDbSymbolTableRecord
100
AcDbLayerTableRecord
  2
LAYER121
 70
               0
 62
               7
  6
CONTINUOUS
  0
LAYER
  5
AF
100
AcDbSymbolTableRecord
100
AcDbLayerTableRecord
  2
LAYER122
 70
               0
 62
               7
  6
CONTINUOUS
  0
LAYER
  5
B0
100
AcDbSymbolTableRecord
100
AcDbLayerTableRecord
  2
LAYER123
 70
               0
 62
               7
  6
CONTINUOUS
  0
LAYER
  5
B1
100
AcDbSymbolTableRecord
100
AcDbLayerTableRecord
  2
LAYER124
 70
               0
 62
               7
  6
CONTINUOUS
  0
LAYER
  5
B2
100
AcDbSymbolTableRecord
100
AcDbLayerTableRecord
  2
LAYER125
 70
               0
 62
               7
  6
CONTINUOUS
  0
LAYER
  5
B3
100
AcDbSymbolTableRecord
100
AcDbLayerTableRecord
  2
LAYER126
 70
               0
 62
               7
  6
CONTINUOUS
  0
LAYER
  5
B4
100
AcDbSymbolTableRecord
100
AcDbLayerTableRecord
  2
LAYER127
 70
               0
 62
               7
  6
CONTINUOUS
  0
LAYER
  5
B5
100
AcDbSymbolTableRecord
100
AcDbLayerTableRecord
  2
LAYER128
 70
               0
 62
               7
  6
CONTINUOUS
  0
LAYER
  5
B6
100
AcDbSymbolTableRecord
100
AcDbLayerTableRecord
  2
LAYER129
 70
               0
 62
               7
  6
CONTINUOUS
  0
LAYER
  5
B7
100
AcDbSymbolTableRecord
100
AcDbLayerTableRecord
  2
LAYER130
 70
               0
 62
               7
  6
CONTINUOUS
  0
LAYER
  5
B8
100
AcDbSymbolTableRecord
100
AcDbLayerTableRecord
  2
LAYER131
 70
               0
 62
               7
  6
CONTINUOUS
  0
LAYER
  5
B9
100
AcDbSymbolTableRecord
100
AcDbLayerTableRecord
  2
LAYER132
 70
               0
 62
               7
  6
CONTINUOUS
  0
LAYER
  5
BA
100
AcDbSymbolTableRecord
100
AcDbLayerTableRecord
  2
LAYER133
 70
               0
 62
               7
  6
CONTINUOUS
  0
LAYER
  5
BB
100
AcDbSymbolTableRecord
100
AcDbLayerTableRecord
  2
LAYER134
 70
               0
 62
               7
  6
CONTINUOUS
  0
LAYER
  5
BC
100
AcDbSymbolTableRecord
100
AcDbLayerTableRecord
  2
LAYER135
 70
               0
 62
               7
  6
CONTINUOUS
  0
LAYER
  5
BD
100
AcDbSymbolTableRecord
100
AcDbLayerTableRecord
  2
LAYER136
 70
               0
 62
               7
  6
CONTINUOUS
  0
LAYER
  5
BE
100
AcDbSymbolTableRecord
100
AcDbLayerTableRecord
  2
LAYER137
 70
               0
 62
               7
  6
CONTINUOUS
  0
LAYER
  5
BF
100
AcDbSymbolTableRecord
100
AcDbLayerTableRecord
  2
LAYER138
 70
               0
 62
               7
  6
CONTINUOUS
  0
LAYER
  5
C0
100
AcDbSymbolTableRecord
100
AcDbLayerTableRecord
  2
LAYER139
 70
               0
 62
               7
  6
CONTINUOUS
  0
LAYER
  5
C1
100
AcDbSymbolTableRecord
100
AcDbLayerTableRecord
  2
LAYER140
 70
               0
 62
               7
  6
CONTINUOUS
  0
LAYER
  5
C2
100
AcDbSymbolTableRecord
100
AcDbLayerTableRecord
  2
LAYER141
 70
               0
 62
               7
  6
CONTINUOUS
  0
LAYER
  5
C3
100
AcDbSymbolTableRecord
100
AcDbLayerTableRecord
  2
LAYER142
 70
               0
 62
               7
  6
CONTINUOUS
  0
LAYER
  5
C4
100
AcDbSymbolTableRecord
100
AcDbLayerTableRecord
  2
LAYER143
 70
               0
 62
               7
  6
CONTINUOUS
  0
LAYER
  5
C5
100
AcDbSymbolTableRecord
100
AcDbLayerTableRecord
  2
LAYER144
 70
               0
 62
               7
  6
CONTINUOUS
  0
LAYER
  5
C6
100
AcDbSymbolTableRecord
100
AcDbLayerTableRecord
  2
LAYER145
 70
               0
 62
               7
  6
CONTINUOUS
  0
LAYER
  5
C7
100
AcDbSymbolTableRecord
100
AcDbLayerTableRecord
  2
LAYER146
 70
               0
 62
               7
  6
CONTINUOUS
  0
LAYER
  5
C8
100
AcDbSymbolTableRecord
100
AcDbLayerTableRecord
  2
LAYER147
 70
               0
 62
               7
  6
CONTINUOUS
  0
LAYER
  5
C9
100
AcDbSymbolTableRecord
100
AcDbLayerTableRecord
  2
LAYER148
 70
               0
 62
               7
  6
CONTINUOUS
  0
LAYER
  5
CA
100
AcDbSymbolTableRecord
100
AcDbLayerTableRecord
  2
LAYER149
 70
               0
 62
               7
  6
CONTINUOUS
  0
LAYER
  5
CB
100
AcDbSymbolTableRecord
100
AcDbLayerTableRecord
  2
LAYER150
 70
               0
 62
               7
  6
CONTINUOUS
  0
LAYER
  5
CC
100
AcDbSymbolTableRecord
100
AcDbLayerTableRecord
  2
LAYER151
 70
               0
 62
               7
  6
CONTINUOUS
  0
LAYER
  5
CD
100
AcDbSymbolTableRecord
100
AcDbLayerTableRecord
  2
LAYER152
 70
               0
 62
               7
  6
CONTINUOUS
  0
LAYER
  5
CE
100
AcDbSymbolTableRecord
100
AcDbLayerTableRecord
  2
LAYER153
 70
               0
 62
               7
  6
CONTINUOUS
  0
LAYER
  5
CF
100
AcDbSymbolTableRecord
100
AcDbLayerTableRecord
  2
LAYER154
 70
               0
 62
               7
  6
CONTINUOUS
  0
LAYER
  5
D0
100
AcDbSymbolTableRecord
100
AcDbLayerTableRecord
  2
LAYER155
 70
               0
 62
               7
  6
CONTINUOUS
  0
LAYER
  5
D1
100
AcDbSymbolTableRecord
100
AcDbLayerTableRecord
  2
LAYER156
 70
               0
 62
               7
  6
CONTINUOUS
  0
LAYER
  5
D2
100
AcDbSymbolTableRecord
100
AcDbLayerTableRecord
  2
LAYER157
 70
               0
 62
               7
  6
CONTINUOUS
  0
LAYER
  5
D3
100
AcDbSymbolTableRecord
100
AcDbLayerTableRecord
  2
LAYER158
 70
               0
 62
               7
  6
CONTINUOUS
  0
LAYER
  5
D4
100
AcDbSymbolTableRecord
100
AcDbLayerTableRecord
  2
LAYER159
 70
               0
 62
               7
  6
CONTINUOUS
  0
LAYER
  5
D5
100
AcDbSymbolTableRecord
100
AcDbLayerTableRecord
  2
LAYER160
 70
               0
 62
               7
  6
CONTINUOUS
  0
LAYER
  5
D6
100
AcDbSymbolTableRecord
100
AcDbLayerTableRecord
  2
LAYER161
 70
               0
 62
               7
  6
CONTINUOUS
  0
LAYER
  5
D7
100
AcDbSymbolTableRecord
100
AcDbLayerTableRecord
  2
LAYER162
 70
               0
 62
               7
  6
CONTINUOUS
  0
LAYER
  5
D8
100
AcDbSymbolTableRecord
100
AcDbLayerTableRecord
  2
LAYER163
 70
               0
 62
               7
  6
CONTINUOUS
  0
LAYER
  5
D9
100
AcDbSymbolTableRecord
100
AcDbLayerTableRecord
  2
LAYER164
 70
               0
 62
               7
  6
CONTINUOUS
  0
LAYER
  5
DA
100
AcDbSymbolTableRecord
100
AcDbLayerTableRecord
  2
LAYER165
 70
               0
 62
               7
  6
CONTINUOUS
  0
LAYER
  5
DB
100
AcDbSymbolTableRecord
100
AcDbLayerTableRecord
  2
LAYER166
 70
               0
 62
               7
  6
CONTINUOUS
  0
LAYER
  5
DC
100
AcDbSymbolTableRecord
100
AcDbLayerTableRecord
  2
LAYER167
 70
               0
 62
               7
  6
CONTINUOUS
  0
LAYER
  5
DD
100
AcDbSymbolTableRecord
100
AcDbLayerTableRecord
  2
LAYER168
 70
               0
 62
               7
  6
CONTINUOUS
  0
LAYER
  5
DE
100
AcDbSymbolTableRecord
100
AcDbLayerTableRecord
  2
LAYER169
 70
               0
 62
               7
  6
CONTINUOUS
  0
LAYER
  5
DF
100
AcDbSymbolTableRecord
100
AcDbLayerTableRecord
  2
LAYER170
 70
               0
 62
               7
  6
CONTINUOUS
  0
LAYER
  5
E0
100
AcDbSymbolTableRecord
100
AcDbLayerTableRecord
  2
LAYER171
 70
               0
 62
               7
  6
CONTINUOUS
  0
LAYER
  5
E1
100
AcDbSymbolTableRecord
100
AcDbLayerTableRecord
  2
LAYER172
 70
               0
 62
               7
  6
CONTINUOUS
  0
LAYER
  5
E2
100
AcDbSymbolTableRecord
100
AcDbLayerTableRecord
  2
LAYER173
 70
               0
 62
               7
  6
CONTINUOUS
  0
LAYER
  5
E3
100
AcDbSymbolTableRecord
100
AcDbLayerTableRecord
  2
LAYER174
 70
               0
 62
               7
  6
CONTINUOUS
  0
LAYER
  5
E4
100
AcDbSymbolTableRecord
100
AcDbLayerTableRecord
  2
LAYER175
 70
               0
 62
               7
  6
CONTINUOUS
  0
LAYER
  5
E5
100
AcDbSymbolTableRecord
100
AcDbLayerTableRecord
  2
LAYER176
 70
               0
 62
               7
  6
CONTINUOUS
  0
LAYER
  5
E6
100
AcDbSymbolTableRecord
100
AcDbLayerTableRecord
  2
LAYER177
 70
               0
 62
               7
  6
CONTINUOUS
  0
LAYER
  5
E7
100
AcDbSymbolTableRecord
100
AcDbLayerTableRecord
  2
LAYER178
 70
               0
 62
               7
  6
CONTINUOUS
  0
LAYER
  5
E8
100
AcDbSymbolTableRecord
100
AcDbLayerTableRecord
  2
LAYER179
 70
               0
 62
               7
  6
CONTINUOUS
  0
LAYER
  5
E9
100
AcDbSymbolTableRecord
100
AcDbLayerTableRecord
  2
LAYER180
 70
               0
 62
               7
  6
CONTINUOUS
  0
LAYER
  5
EA
100
AcDbSymbolTableRecord
100
AcDbLayerTableRecord
  2
LAYER181
 70
               0
 62
               7
  6
CONTINUOUS
  0
LAYER
  5
EB
100
AcDbSymbolTableRecord
100
AcDbLayerTableRecord
  2
LAYER182
 70
               0
 62
               7
  6
CONTINUOUS
  0
LAYER
  5
EC
100
AcDbSymbolTableRecord
100
AcDbLayerTableRecord
  2
LAYER183
 70
               0
 62
               7
  6
CONTINUOUS
  0
LAYER
  5
ED
100
AcDbSymbolTableRecord
100
AcDbLayerTableRecord
  2
LAYER184
 70
               0
 62
               7
  6
CONTINUOUS
  0
LAYER
  5
EE
100
AcDbSymbolTableRecord
100
AcDbLayerTableRecord
  2
LAYER185
 70
               0
 62
               7
  6
CONTINUOUS
  0
LAYER
  5
EF
100
AcDbSymbolTableRecord
100
AcDbLayerTableRecord
  2
LAYER186
 70
               0
 62
               7
  6
CONTINUOUS
  0
LAYER
  5
F0
100
AcDbSymbolTableRecord
100
AcDbLayerTableRecord
  2
LAYER187
 70
               0
 62
               7
  6
CONTINUOUS
  0
LAYER
  5
F1
100
AcDbSymbolTableRecord
100
AcDbLayerTableRecord
  2
LAYER188
 70
               0
 62
               7
  6
CONTINUOUS
  0
LAYER
  5
F2
100
AcDbSymbolTableRecord
100
AcDbLayerTableRecord
  2
LAYER189
 70
               0
 62
               7
  6
CONTINUOUS
  0
LAYER
  5
F3
100
AcDbSymbolTableRecord
100
AcDbLayerTableRecord
  2
LAYER190
 70
               0
 62
               7
  6
CONTINUOUS
  0
LAYER
  5
F4
100
AcDbSymbolTableRecord
100
AcDbLayerTableRecord
  2
LAYER191
 70
               0
 62
               7
  6
CONTINUOUS
  0
LAYER
  5
F5
100
AcDbSymbolTableRecord
100
AcDbLayerTableRecord
  2
LAYER192
 70
               0
 62
               7
  6
CONTINUOUS
  0
LAYER
  5
F6
100
AcDbSymbolTableRecord
100
AcDbLayerTableRecord
  2
LAYER193
 70
               0
 62
               7
  6
CONTINUOUS
  0
LAYER
  5
F7
100
AcDbSymbolTableRecord
100
AcDbLayerTableRecord
  2
LAYER194
 70
               0
 62
               7
  6
CONTINUOUS
  0
LAYER
  5
F8
100
AcDbSymbolTableRecord
100
AcDbLayerTableRecord
  2
LAYER195
 70
               0
 62
               7
  6
CONTINUOUS
  0
LAYER
  5
F9
100
AcDbSymbolTableRecord
100
AcDbLayerTableRecord
  2
LAYER196
 70
               0
 62
               7
  6
CONTINUOUS
  0
LAYER
  5
FA
100
AcDbSymbolTableRecord
100
AcDbLayerTableRecord
  2
LAYER197
 70
               0
 62
               7
  6
CONTINUOUS
  0
LAYER
  5
FB
100
AcDbSymbolTableRecord
100
AcDbLayerTableRecord
  2
LAYER198
 70
               0
 62
               7
  6
CONTINUOUS
  0
LAYER
  5
FC
100
AcDbSymbolTableRecord
100
AcDbLayerTableRecord
  2
LAYER199
 70
               0
 62
               7
  6
CONTINUOUS
  0
LAYER
  5
FD
100
AcDbSymbolTableRecord
100
AcDbLayerTableRecord
  2
LAYER200
 70
               0
 62
               7
  6
CONTINUOUS
  0
LAYER
  5
FE
100
AcDbSymbolTableRecord
100
AcDbLayerTableRecord
  2
LAYER201
 70
               0
 62
               7
  6
CONTINUOUS
  0
LAYER
  5
FF
100
AcDbSymbolTableRecord
100
AcDbLayerTableRecord
  2
LAYER202
 70
               0
 62
               7
  6
CONTINUOUS
  0
LAYER
  5
100
100
AcDbSymbolTableRecord
100
AcDbLayerTableRecord
  2
LAYER203
 70
               0
 62
               7
  6
CONTINUOUS
  0
LAYER
  5
101
100
AcDbSymbolTableRecord
100
AcDbLayerTableRecord
  2
LAYER204
 70
               0
 62
               7
  6
CONTINUOUS
  0
LAYER
  5
102
100
AcDbSymbolTableRecord
100
AcDbLayerTableRecord
  2
LAYER205
 70
               0
 62
               7
  6
CONTINUOUS
  0
LAYER
  5
103
100
AcDbSymbolTableRecord
100
AcDbLayerTableRecord
  2
LAYER206
 70
               0
 62
               7
  6
CONTINUOUS
  0
LAYER
  5
104
100
AcDbSymbolTableRecord
100
AcDbLayerTableRecord
  2
LAYER207
 70
               0
 62
               7
  6
CONTINUOUS
  0
LAYER
  5
105
100
AcDbSymbolTableRecord
100
AcDbLayerTableRecord
  2
LAYER208
 70
               0
 62
               7
  6
CONTINUOUS
  0
LAYER
  5
106
100
AcDbSymbolTableRecord
100
AcDbLayerTableRecord
  2
LAYER209
 70
               0
 62
               7
  6
CONTINUOUS
  0
LAYER
  5
107
100
AcDbSymbolTableRecord
100
AcDbLayerTableRecord
  2
LAYER210
 70
               0
 62
               7
  6
CONTINUOUS
  0
LAYER
  5
108
100
AcDbSymbolTableRecord
100
AcDbLayerTableRecord
  2
LAYER211
 70
               0
 62
               7
  6
CONTINUOUS
  0
LAYER
  5
109
100
AcDbSymbolTableRecord
100
AcDbLayerTableRecord
  2
LAYER212
 70
               0
 62
               7
  6
CONTINUOUS
  0
LAYER
  5
10A
100
AcDbSymbolTableRecord
100
AcDbLayerTableRecord
  2
LAYER213
 70
               0
 62
               7
  6
CONTINUOUS
  0
LAYER
  5
10B
100
AcDbSymbolTableRecord
100
AcDbLayerTableRecord
  2
LAYER214
 70
               0
 62
               7
  6
CONTINUOUS
  0
LAYER
  5
10C
100
AcDbSymbolTableRecord
100
AcDbLayerTableRecord
  2
LAYER215
 70
               0
 62
               7
  6
CONTINUOUS
  0
LAYER
  5
10D
100
AcDbSymbolTableRecord
100
AcDbLayerTableRecord
  2
LAYER216
 70
               0
 62
               7
  6
CONTINUOUS
  0
LAYER
  5
10E
100
AcDbSymbolTableRecord
100
AcDbLayerTableRecord
  2
LAYER217
 70
               0
 62
               7
  6
CONTINUOUS
  0
LAYER
  5
10F
100
AcDbSymbolTableRecord
100
AcDbLayerTableRecord
  2
LAYER218
 70
               0
 62
               7
  6
CONTINUOUS
  0
LAYER
  5
110
100
AcDbSymbolTableRecord
100
AcDbLayerTableRecord
  2
LAYER219
 70
               0
 62
               7
  6
CONTINUOUS
  0
LAYER
  5
111
100
AcDbSymbolTableRecord
100
AcDbLayerTableRecord
  2
LAYER220
 70
               0
 62
               7
  6
CONTINUOUS
  0
LAYER
  5
112
100
AcDbSymbolTableRecord
100
AcDbLayerTableRecord
  2
LAYER221
 70
               0
 62
               7
  6
CONTINUOUS
  0
LAYER
  5
113
100
AcDbSymbolTableRecord
100
AcDbLayerTableRecord
  2
LAYER222
 70
               0
 62
               7
  6
CONTINUOUS
  0
LAYER
  5
114
100
AcDbSymbolTableRecord
100
AcDbLayerTableRecord
  2
LAYER223
 70
               0
 62
               7
  6
CONTINUOUS
  0
LAYER
  5
115
100
AcDbSymbolTableRecord
100
AcDbLayerTableRecord
  2
LAYER224
 70
               0
 62
               7
  6
CONTINUOUS
  0
LAYER
  5
116
100
AcDbSymbolTableRecord
100
AcDbLayerTableRecord
  2
LAYER225
 70
               0
 62
               7
  6
CONTINUOUS
  0
LAYER
  5
117
100
AcDbSymbolTableRecord
100
AcDbLayerTableRecord
  2
LAYER226
 70
               0
 62
               7
  6
CONTINUOUS
  0
LAYER
  5
118
100
AcDbSymbolTableRecord
100
AcDbLayerTableRecord
  2
LAYER227
 70
               0
 62
               7
  6
CONTINUOUS
  0
LAYER
  5
119
100
AcDbSymbolTableRecord
100
AcDbLayerTableRecord
  2
LAYER228
 70
               0
 62
               7
  6
CONTINUOUS
  0
LAYER
  5
11A
100
AcDbSymbolTableRecord
100
AcDbLayerTableRecord
  2
LAYER229
 70
               0
 62
               7
  6
CONTINUOUS
  0
LAYER
  5
11B
100
AcDbSymbolTableRecord
100
AcDbLayerTableRecord
  2
LAYER230
 70
               0
 62
               7
  6
CONTINUOUS
  0
LAYER
  5
11C
100
AcDbSymbolTableRecord
100
AcDbLayerTableRecord
  2
LAYER231
 70
               0
 62
               7
  6
CONTINUOUS
  0
LAYER
  5
11D
100
AcDbSymbolTableRecord
100
AcDbLayerTableRecord
  2
LAYER232
 70
               0
 62
               7
  6
CONTINUOUS
  0
LAYER
  5
11E
100
AcDbSymbolTableRecord
100
AcDbLayerTableRecord
  2
LAYER233
 70
               0
 62
               7
  6
CONTINUOUS
  0
LAYER
  5
11F
100
AcDbSymbolTableRecord
100
AcDbLayerTableRecord
  2
LAYER234
 70
               0
 62
               7
  6
CONTINUOUS
  0
LAYER
  5
120
100
AcDbSymbolTableRecord
100
AcDbLayerTableRecord
  2
LAYER235
 70
               0
 62
               7
  6
CONTINUOUS
  0
LAYER
  5
121
100
AcDbSymbolTableRecord
100
AcDbLayerTableRecord
  2
LAYER236
 70
               0
 62
               7
  6
CONTINUOUS
  0
LAYER
  5
122
100
AcDbSymbolTableRecord
100
AcDbLayerTableRecord
  2
LAYER237
 70
               0
 62
               7
  6
CONTINUOUS
  0
LAYER
  5
123
100
AcDbSymbolTableRecord
100
AcDbLayerTableRecord
  2
LAYER238
 70
               0
 62
               7
  6
CONTINUOUS
  0
LAYER
  5
124
100
AcDbSymbolTableRecord
100
AcDbLayerTableRecord
  2
LAYER239
 70
               0
 62
               7
  6
CONTINUOUS
  0
LAYER
  5
125
100
AcDbSymbolTableRecord
100
AcDbLayerTableRecord
  2
LAYER240
 70
               0
 62
               7
  6
CONTINUOUS
  0
LAYER
  5
126
100
AcDbSymbolTableRecord
100
AcDbLayerTableRecord
  2
LAYER241
 70
               0
 62
               7
  6
CONTINUOUS
  0
LAYER
  5
127
100
AcDbSymbolTableRecord
100
AcDbLayerTableRecord
  2
LAYER242
 70
               0
 62
               7
  6
CONTINUOUS
  0
LAYER
  5
128
100
AcDbSymbolTableRecord
100
AcDbLayerTableRecord
  2
LAYER243
 70
               0
 62
               7
  6
CONTINUOUS
  0
LAYER
  5
129
100
AcDbSymbolTableRecord
100
AcDbLayerTableRecord
  2
LAYER244
 70
               0
 62
               7
  6
CONTINUOUS
  0
LAYER
  5
12A
100
AcDbSymbolTableRecord
100
AcDbLayerTableRecord
  2
LAYER245
 70
               0
 62
               7
  6
CONTINUOUS
  0
LAYER
  5
12B
100
AcDbSymbolTableRecord
100
AcDbLayerTableRecord
  2
LAYER246
 70
               0
 62
               7
  6
CONTINUOUS
  0
LAYER
  5
12C
100
AcDbSymbolTableRecord
100
AcDbLayerTableRecord
  2
LAYER247
 70
               0
 62
               7
  6
CONTINUOUS
  0
LAYER
  5
12D
100
AcDbSymbolTableRecord
100
AcDbLayerTableRecord
  2
LAYER248
 70
               0
 62
               7
  6
CONTINUOUS
  0
LAYER
  5
12E
100
AcDbSymbolTableRecord
100
AcDbLayerTableRecord
  2
LAYER249
 70
               0
 62
               7
  6
CONTINUOUS
  0
LAYER
  5
12F
100
AcDbSymbolTableRecord
100
AcDbLayerTableRecord
  2
LAYER250
 70
               0
 62
               7
  6
CONTINUOUS
  0
LAYER
  5
130
100
AcDbSymbolTableRecord
100
AcDbLayerTableRecord
  2
LAYER251
 70
               0
 62
               7
  6
CONTINUOUS
  0
LAYER
  5
131
100
AcDbSymbolTableRecord
100
AcDbLayerTableRecord
  2
LAYER252
 70
               0
 62
               7
  6
CONTINUOUS
  0
LAYER
  5
132
100
AcDbSymbolTableRecord
100
AcDbLayerTableRecord
  2
LAYER253
 70
               0
 62
               7
  6
CONTINUOUS
  0
LAYER
  5
133
100
AcDbSymbolTableRecord
100
AcDbLayerTableRecord
  2
LAYER254
 70
               0
 62
               7
  6
CONTINUOUS
  0
LAYER
  5
134
100
AcDbSymbolTableRecord
100
AcDbLayerTableRecord
  2
LAYER255
 70
               0
 62
               7
  6
CONTINUOUS
  0
ENDTAB
  0
TABLE
  2
STYLE
  5
3
100
AcDbSymbolTable
 70
               2
  0
STYLE
  5
17
100
AcDbSymbolTableRecord
100
AcDbTextStyleTableRecord
  2
STANDARD
 70
               0
 40
0.0
 41
1.0
 50
0.0
 71
               0
 42
42.0
  3
txt.shx
  4
bigfont.shx
  0
STYLE
  5
135
100
AcDbSymbolTableRecord
100
AcDbTextStyleTableRecord
  2
FdaStyle1
 70
               0
 40
0.0
 41
0.8
 50
0.0
 71
               0
 42
120.0
  3
MS Mincho.ttf
  4
bigfont.shx
1001
ACAD
1000
MS Mincho
1071
    32786
  0
ENDTAB
  0
TABLE
  2
VIEW
  5
5
100
AcDbSymbolTable
 70
               1
  0
VIEW
  5
136
100
AcDbSymbolTableRecord
100
AcDbViewTableRecord
  2
QQQQ
 70
               0
 40
3219.9699999999998
 10
-77.998296459187259
 20
-102.53860936408091
 41
3816.6700000000001
 11
0.0
 21
0.0
 31
1.0
 12
100.0
 22
100.0
 32
0.0
 42
50.0
 43
0.0
 44
0.0
 50
0.0
 71
               0
  0
ENDTAB
  0
TABLE
  2
UCS
  5
6
100
AcDbSymbolTable
 70
               0
  0
ENDTAB
  0
TABLE
  2
APPID
  5
8
100
AcDbSymbolTable
 70
               1
  0
APPID
  5
16
100
AcDbSymbolTableRecord
100
AcDbRegAppTableRecord
  2
ACAD
 70
               0
  0
ENDTAB
  0
TABLE
  2
DIMSTYLE
  5
9
100
AcDbSymbolTable
 70
               1
  0
DIMSTYLE
105
18
100
AcDbSymbolTableRecord
100
AcDbDimStyleTableRecord
  2
STANDARD
 70
               0
  3

  4

  5

  6

  7

 40
1.0
 41
0.18
 42
0.0625
 43
0.38
 44
0.18
 45
0.0
 46
0.0
 47
0.0
 48
0.0
140
0.18
141
0.09
142
0.0
143
25.399999999999999
144
1.0
145
0.0
146
1.0
147
0.09
 71
               0
 72
               0
 73
               1
 74
               1
 75
               0
 76
               0
 77
               0
 78
               0
170
               0
171
               2
172
               0
173
               0
174
               0
175
               0
176
               0
177
               0
178
               0
270
               2
271
               4
272
               4
273
               2
274
               2
340
17
275
               0
280
               0
281
               0
282
               0
283
               1
284
               0
285
               0
286
               0
287
               0
288
               0
  0
ENDTAB
  0
TABLE
  2
BLOCK_RECORD
  5
1
100
AcDbSymbolTable
 70
              33
  0
BLOCK_RECORD
  5
A
100
AcDbSymbolTableRecord
100
AcDbBlockTableRecord
  2
*MODEL_SPACE
  0
BLOCK_RECORD
  5
B
100
AcDbSymbolTableRecord
100
AcDbBlockTableRecord
  2
*PAPER_SPACE
  0
BLOCK_RECORD
  5
137
100
AcDbSymbolTableRecord
100
AcDbBlockTableRecord
  2
GROUP_1
  0
BLOCK_RECORD
  5
138
100
AcDbSymbolTableRecord
100
AcDbBlockTableRecord
  2
_OPEN
  0
BLOCK_RECORD
  5
139
100
AcDbSymbolTableRecord
100
AcDbBlockTableRecord
  2
GROUP_2
  0
BLOCK_RECORD
  5
13A
100
AcDbSymbolTableRecord
100
AcDbBlockTableRecord
  2
GROUP_3
  0
BLOCK_RECORD
  5
13B
100
AcDbSymbolTableRecord
100
AcDbBlockTableRecord
  2
GROUP_4
  0
BLOCK_RECORD
  5
13C
100
AcDbSymbolTableRecord
100
AcDbBlockTableRecord
  2
GROUP_5
  0
BLOCK_RECORD
  5
13D
100
AcDbSymbolTableRecord
100
AcDbBlockTableRecord
  2
GROUP_6
  0
BLOCK_RECORD
  5
13E
100
AcDbSymbolTableRecord
100
AcDbBlockTableRecord
  2
GROUP_7
  0
BLOCK_RECORD
  5
13F
100
AcDbSymbolTableRecord
100
AcDbBlockTableRecord
  2
GROUP_8
  0
BLOCK_RECORD
  5
140
100
AcDbSymbolTableRecord
100
AcDbBlockTableRecord
  2
GROUP_9
  0
BLOCK_RECORD
  5
141
100
AcDbSymbolTableRecord
100
AcDbBlockTableRecord
  2
GROUP_10
  0
BLOCK_RECORD
  5
142
100
AcDbSymbolTableRecord
100
AcDbBlockTableRecord
  2
GROUP_11
  0
BLOCK_RECORD
  5
143
100
AcDbSymbolTableRecord
100
AcDbBlockTableRecord
  2
GROUP_12
  0
BLOCK_RECORD
  5
144
100
AcDbSymbolTableRecord
100
AcDbBlockTableRecord
  2
GROUP_13
  0
BLOCK_RECORD
  5
145
100
AcDbSymbolTableRecord
100
AcDbBlockTableRecord
  2
GROUP_14
  0
BLOCK_RECORD
  5
146
100
AcDbSymbolTableRecord
100
AcDbBlockTableRecord
  2
GROUP_15
  0
BLOCK_RECORD
  5
147
100
AcDbSymbolTableRecord
100
AcDbBlockTableRecord
  2
GROUP_16
  0
BLOCK_RECORD
  5
148
100
AcDbSymbolTableRecord
100
AcDbBlockTableRecord
  2
GROUP_17
  0
BLOCK_RECORD
  5
149
100
AcDbSymbolTableRecord
100
AcDbBlockTableRecord
  2
GROUP_18
  0
BLOCK_RECORD
  5
14A
100
AcDbSymbolTableRecord
100
AcDbBlockTableRecord
  2
GROUP_19
  0
BLOCK_RECORD
  5
14B
100
AcDbSymbolTableRecord
100
AcDbBlockTableRecord
  2
GROUP_20
  0
BLOCK_RECORD
  5
14C
100
AcDbSymbolTableRecord
100
AcDbBlockTableRecord
  2
GROUP_21
  0
BLOCK_RECORD
  5
14D
100
AcDbSymbolTableRecord
100
AcDbBlockTableRecord
  2
GROUP_22
  0
BLOCK_RECORD
  5
14E
100
AcDbSymbolTableRecord
100
AcDbBlockTableRecord
  2
GROUP_23
  0
BLOCK_RECORD
  5
14F
100
AcDbSymbolTableRecord
100
AcDbBlockTableRecord
  2
GROUP_24
  0
BLOCK_RECORD
  5
150
100
AcDbSymbolTableRecord
100
AcDbBlockTableRecord
  2
GROUP_25
  0
BLOCK_RECORD
  5
151
100
AcDbSymbolTableRecord
100
AcDbBlockTableRecord
  2
GROUP_26
  0
BLOCK_RECORD
  5
152
100
AcDbSymbolTableRecord
100
AcDbBlockTableRecord
  2
GROUP_27
  0
BLOCK_RECORD
  5
153
100
AcDbSymbolTableRecord
100
AcDbBlockTableRecord
  2
_ORIGIN
  0
BLOCK_RECORD
  5
154
100
AcDbSymbolTableRecord
100
AcDbBlockTableRecord
  2
_DOT
  0
BLOCK_RECORD
  5
155
100
AcDbSymbolTableRecord
100
AcDbBlockTableRecord
  2
GROUP_28
  0
BLOCK_RECORD
  5
156
100
AcDbSymbolTableRecord
100
AcDbBlockTableRecord
  2
GROUP_29
  0
BLOCK_RECORD
  5
157
100
AcDbSymbolTableRecord
100
AcDbBlockTableRecord
  2
GROUP_30
  0
ENDTAB
  0
ENDSEC
  0
SECTION
  2
BLOCKS
  0
BLOCK
  5
D
100
AcDbEntity
  8
0
100
AcDbBlockBegin
  2
*MODEL_SPACE
 70
               0
 10
0.0
 20
0.0
 30
0.0
  3
*MODEL_SPACE
  1

  0
ENDBLK
  5
E
100
AcDbEntity
  8
0
100
AcDbBlockEnd
  0
BLOCK
  5
F
100
AcDbEntity
 67
               1
  8
0
100
AcDbBlockBegin
  2
*PAPER_SPACE
 70
               0
 10
0.0
 20
0.0
 30
0.0
  3
*PAPER_SPACE
  1

  0
ENDBLK
  5
10
100
AcDbEntity
 67
               1
  8
0
100
AcDbBlockEnd
  0
BLOCK
  5
158
100
AcDbEntity
  8
0
100
AcDbBlockBegin
  2
GROUP_1
 70
               0
 10
0.0
 20
0.0
 30
0.0
  3
GROUP_1
  1

  0
LINE
  5
159
100
AcDbEntity
  8
LAYER064
  6
CONTINUOUS
 62
               9
100
AcDbLine
 10
-1633.9982964591873
 20
1046.5386093640811
 30
0.0
 11
-1633.9982964591873
 21
1229.5386093640809
 31
0.0
  0
LINE
  5
15A
100
AcDbEntity
  8
LAYER064
  6
CONTINUOUS
 62
               9
100
AcDbLine
 10
-1658.9982964591873
 20
1071.5386093640809
 30
0.0
 11
-1658.9982964591873
 21
1229.5386093640809
 31
0.0
  0
LINE
  5
15B
100
AcDbEntity
  8
LAYER064
  6
CONTINUOUS
 62
               9
100
AcDbLine
 10
-1658.9982964591873
 20
1217.5386093640809
 30
0.0
 11
-1633.9982964591873
 21
1217.5386093640809
 31
0.0
  0
LINE
  5
15C
100
AcDbEntity
  8
LAYER064
  6
CONTINUOUS
 62
               9
100
AcDbLine
 10
-483.99829645918726
 20
1046.5386093640809
 30
0.0
 11
-483.99829645918726
 21
1229.5386093640809
 31
0.0
  0
LINE
  5
15D
100
AcDbEntity
  8
LAYER064
  6
CONTINUOUS
 62
               9
100
AcDbLine
 10
-458.99829645918726
 20
1071.5386093640809
 30
0.0
 11
-458.99829645918726
 21
1229.5386093640809
 31
0.0
  0
LINE
  5
15E
100
AcDbEntity
  8
LAYER064
  6
CONTINUOUS
 62
               9
100
AcDbLine
 10
-483.99829645918726
 20
1217.5386093640809
 30
0.0
 11
-458.99829645918726
 21
1217.5386093640809
 31
0.0
  0
LINE
  5
15F
100
AcDbEntity
  8
LAYER064
  6
CONTINUOUS
 62
               9
100
AcDbLine
 10
-1802.9982964591873
 20
1217.5386093640809
 30
0.0
 11
-1658.9982964591873
 21
1217.5386093640809
 31
0.0
  0
LINE
  5
160
100
AcDbEntity
  8
LAYER064
  6
CONTINUOUS
 62
               9
100
AcDbLine
 10
-1658.9982964591873
 20
1217.5386093640809
 30
0.0
 11
-1688.8339535976111
 21
1214.4027581051046
 31
0.0
  0
LINE
  5
161
100
AcDbEntity
  8
LAYER064
  6
CONTINUOUS
 62
               9
100
AcDbLine
 10
-1658.9982964591873
 20
1217.5386093640809
 30
0.0
 11
-1688.8339535976111
 21
1220.6744606230573
 31
0.0
  0
LINE
  5
162
100
AcDbEntity
  8
LAYER064
  6
CONTINUOUS
 62
               9
100
AcDbLine
 10
-314.99829645918726
 20
1217.5386093640809
 30
0.0
 11
-458.99829645918726
 21
1217.5386093640809
 31
0.0
  0
LINE
  5
163
100
AcDbEntity
  8
LAYER064
  6
CONTINUOUS
 62
               9
100
AcDbLine
 10
-458.99829645918726
 20
1217.5386093640809
 30
0.0
 11
-429.1626393207635
 21
1220.6744606230573
 31
0.0
  0
LINE
  5
164
100
AcDbEntity
  8
LAYER064
  6
CONTINUOUS
 62
               9
100
AcDbLine
 10
-458.99829645918726
 20
1217.5386093640809
 30
0.0
 11
-429.1626393207635
 21
1214.4027581051046
 31
0.0
  0
LINE
  5
165
100
AcDbEntity
  8
LAYER064
  6
CONTINUOUS
 62
               9
100
AcDbLine
 10
-1633.9982964591873
 20
1217.5386093640809
 30
0.0
 11
-483.99829645918726
 21
1217.5386093640809
 31
0.0
  0
LINE
  5
166
100
AcDbEntity
  8
LAYER064
  6
CONTINUOUS
 62
               9
100
AcDbLine
 10
-1633.9982964591873
 20
1217.5386093640809
 30
0.0
 11
-1604.1626395981391
 21
1220.6744632621105
 31
0.0
  0
LINE
  5
167
100
AcDbEntity
  8
LAYER064
  6
CONTINUOUS
 62
               9
100
AcDbLine
 10
-1633.9982964591873
 20
1217.5386093640809
 30
0.0
 11
-1604.1626395981391
 21
1214.4027554660513
 31
0.0
  0
LINE
  5
168
100
AcDbEntity
  8
LAYER064
  6
CONTINUOUS
 62
               9
100
AcDbLine
 10
-483.99829645918726
 20
1217.5386093640809
 30
0.0
 11
-513.83395359761096
 21
1214.4027581051046
 31
0.0
  0
LINE
  5
169
100
AcDbEntity
  8
LAYER064
  6
CONTINUOUS
 62
               9
100
AcDbLine
 10
-483.99829645918726
 20
1217.5386093640809
 30
0.0
 11
-513.83395359761096
 21
1220.6744606230573
 31
0.0
  0
TEXT
  5
16A
100
AcDbEntity
  8
LAYER064
 62
               7
100
AcDbText
 10
-1790.9982964591873
 20
1229.5386093640809
 30
0.0
 40
42.0
  1
25
 72
               5
 11
-1706.9982964591873
 21
1229.5386093640809
 31
0.0
100
AcDbText
  0
TEXT
  5
16B
100
AcDbEntity
  8
LAYER064
 62
               7
100
AcDbText
 10
-1310.9982964591873
 20
1229.5386093640809
 30
0.0
 40
42.0
  1
1150（P50×23）
 72
               5
 11
-806.99829645918726
 21
1229.5386093640809
 31
0.0
100
AcDbText
  0
TEXT
  5
16C
100
AcDbEntity
  8
LAYER064
 62
               7
100
AcDbText
 10
-410.99829645918726
 20
1229.5386093640809
 30
0.0
 40
42.0
  1
25
 72
               5
 11
-326.99829645918726
 21
1229.5386093640809
 31
0.0
100
AcDbText
  0
ENDBLK
  5
16D
100
AcDbEntity
  8
0
100
AcDbBlockEnd
  0
BLOCK
  5
16E
100
AcDbEntity
  8
0
100
AcDbBlockBegin
  2
_OPEN
 70
               0
 10
0.0
 20
0.0
 30
0.0
  3
_OPEN
  1

  0
LINE
  5
16F
100
AcDbEntity
  8
LAYER064
  6
CONTINUOUS
 62
               0
100
AcDbLine
 10
-1.0
 20
0.1666666666666667
 30
0.0
 11
0.0
 21
0.0
 31
0.0
  0
LINE
  5
170
100
AcDbEntity
  8
LAYER064
  6
CONTINUOUS
 62
               0
100
AcDbLine
 10
0.0
 20
0.0
 30
0.0
 11
-1.0
 21
-0.1666666666666667
 31
0.0
  0
LINE
  5
171
100
AcDbEntity
  8
LAYER064
  6
CONTINUOUS
 62
               0
100
AcDbLine
 10
0.0
 20
0.0
 30
0.0
 11
-1.0
 21
0.0
 31
0.0
  0
ENDBLK
  5
172
100
AcDbEntity
  8
0
100
AcDbBlockEnd
  0
BLOCK
  5
173
100
AcDbEntity
  8
0
100
AcDbBlockBegin
  2
GROUP_2
 70
               0
 10
0.0
 20
0.0
 30
0.0
  3
GROUP_2
  1

  0
LINE
  5
174
100
AcDbEntity
  8
LAYER064
  6
CONTINUOUS
 62
               9
100
AcDbLine
 10
-1658.9982964591873
 20
1071.5386093640809
 30
0.0
 11
-1658.9982964591873
 21
1325.5386093640809
 31
0.0
  0
LINE
  5
175
100
AcDbEntity
  8
LAYER064
  6
CONTINUOUS
 62
               9
100
AcDbLine
 10
-458.99829645918726
 20
1071.5386093640809
 30
0.0
 11
-458.99829645918726
 21
1325.5386093640809
 31
0.0
  0
LINE
  5
176
100
AcDbEntity
  8
LAYER064
  6
CONTINUOUS
 62
               9
100
AcDbLine
 10
-1658.9982964591873
 20
1313.5386093640809
 30
0.0
 11
-458.99829645918726
 21
1313.5386093640809
 31
0.0
  0
LINE
  5
177
100
AcDbEntity
  8
LAYER064
  6
CONTINUOUS
 62
               9
100
AcDbLine
 10
-1658.9982964591873
 20
1313.5386093640809
 30
0.0
 11
-1629.1626395981391
 21
1316.6744632621105
 31
0.0
  0
LINE
  5
178
100
AcDbEntity
  8
LAYER064
  6
CONTINUOUS
 62
               9
100
AcDbLine
 10
-1658.9982964591873
 20
1313.5386093640809
 30
0.0
 11
-1629.1626395981391
 21
1310.4027554660513
 31
0.0
  0
LINE
  5
179
100
AcDbEntity
  8
LAYER064
  6
CONTINUOUS
 62
               9
100
AcDbLine
 10
-458.99829645918726
 20
1313.5386093640809
 30
0.0
 11
-488.83395359761101
 21
1310.4027581051046
 31
0.0
  0
LINE
  5
17A
100
AcDbEntity
  8
LAYER064
  6
CONTINUOUS
 62
               9
100
AcDbLine
 10
-458.99829645918726
 20
1313.5386093640809
 30
0.0
 11
-488.83395359761101
 21
1316.6744606230573
 31
0.0
  0
TEXT
  5
17B
100
AcDbEntity
  8
LAYER064
 62
               7
100
AcDbText
 10
-1142.9982964591873
 20
1325.5386093640809
 30
0.0
 40
42.0
  1
1200
 72
               5
 11
-974.99829645918726
 21
1325.5386093640809
 31
0.0
100
AcDbText
  0
ENDBLK
  5
17C
100
AcDbEntity
  8
0
100
AcDbBlockEnd
  0
BLOCK
  5
17D
100
AcDbEntity
  8
0
100
AcDbBlockBegin
  2
GROUP_3
 70
               0
 10
0.0
 20
0.0
 30
0.0
  3
GROUP_3
  1

  0
LINE
  5
17E
100
AcDbEntity
  8
LAYER064
  6
CONTINUOUS
 62
               9
100
AcDbLine
 10
-1670.9982964591873
 20
1083.5386093640809
 30
0.0
 11
-1670.9982964591873
 21
1421.5386093640809
 31
0.0
  0
LINE
  5
17F
100
AcDbEntity
  8
LAYER064
  6
CONTINUOUS
 62
               9
100
AcDbLine
 10
-446.99829645918726
 20
1083.5386093640809
 30
0.0
 11
-446.99829645918726
 21
1421.5386093640809
 31
0.0
  0
LINE
  5
180
100
AcDbEntity
  8
LAYER064
  6
CONTINUOUS
 62
               9
100
AcDbLine
 10
-1670.9982964591873
 20
1409.5386093640809
 30
0.0
 11
-446.99829645918726
 21
1409.5386093640809
 31
0.0
  0
LINE
  5
181
100
AcDbEntity
  8
LAYER064
  6
CONTINUOUS
 62
               9
100
AcDbLine
 10
-1670.9982964591873
 20
1409.5386093640809
 30
0.0
 11
-1641.1626395981391
 21
1412.6744632621105
 31
0.0
  0
LINE
  5
182
100
AcDbEntity
  8
LAYER064
  6
CONTINUOUS
 62
               9
100
AcDbLine
 10
-1670.9982964591873
 20
1409.5386093640809
 30
0.0
 11
-1641.1626395981391
 21
1406.4027554660513
 31
0.0
  0
LINE
  5
183
100
AcDbEntity
  8
LAYER064
  6
CONTINUOUS
 62
               9
100
AcDbLine
 10
-446.99829645918726
 20
1409.5386093640809
 30
0.0
 11
-476.83395359761101
 21
1406.4027581051046
 31
0.0
  0
LINE
  5
184
100
AcDbEntity
  8
LAYER064
  6
CONTINUOUS
 62
               9
100
AcDbLine
 10
-446.99829645918726
 20
1409.5386093640809
 30
0.0
 11
-476.83395359761101
 21
1412.6744606230573
 31
0.0
  0
TEXT
  5
185
100
AcDbEntity
  8
LAYER064
 62
               7
100
AcDbText
 10
-1142.9982964591873
 20
1421.5386093640809
 30
0.0
 40
42.0
  1
1224
 72
               5
 11
-974.99829645918726
 21
1421.5386093640809
 31
0.0
100
AcDbText
  0
ENDBLK
  5
186
100
AcDbEntity
  8
0
100
AcDbBlockEnd
  0
BLOCK
  5
187
100
AcDbEntity
  8
0
100
AcDbBlockBegin
  2
GROUP_4
 70
               0
 10
0.0
 20
0.0
 30
0.0
  3
GROUP_4
  1

  0
LINE
  5
188
100
AcDbEntity
  8
LAYER064
  6
CONTINUOUS
 62
               9
100
AcDbLine
 10
-1696.9982964591873
 20
1109.5386093640809
 30
0.0
 11
-1696.9982964591873
 21
1517.5386093640809
 31
0.0
  0
LINE
  5
189
100
AcDbEntity
  8
LAYER064
  6
CONTINUOUS
 62
               9
100
AcDbLine
 10
-420.99829645918726
 20
1109.5386093640809
 30
0.0
 11
-420.99829645918726
 21
1517.5386093640809
 31
0.0
  0
LINE
  5
18A
100
AcDbEntity
  8
LAYER064
  6
CONTINUOUS
 62
               9
100
AcDbLine
 10
-1696.9982964591873
 20
1505.5386093640809
 30
0.0
 11
-420.99829645918726
 21
1505.5386093640809
 31
0.0
  0
LINE
  5
18B
100
AcDbEntity
  8
LAYER064
  6
CONTINUOUS
 62
               9
100
AcDbLine
 10
-1696.9982964591873
 20
1505.5386093640809
 30
0.0
 11
-1667.1626395981391
 21
1508.6744632621105
 31
0.0
  0
LINE
  5
18C
100
AcDbEntity
  8
LAYER064
  6
CONTINUOUS
 62
               9
100
AcDbLine
 10
-1696.9982964591873
 20
1505.5386093640809
 30
0.0
 11
-1667.1626395981391
 21
1502.4027554660513
 31
0.0
  0
LINE
  5
18D
100
AcDbEntity
  8
LAYER064
  6
CONTINUOUS
 62
               9
100
AcDbLine
 10
-420.99829645918726
 20
1505.5386093640809
 30
0.0
 11
-450.83395359761101
 21
1502.4027581051046
 31
0.0
  0
LINE
  5
18E
100
AcDbEntity
  8
LAYER064
  6
CONTINUOUS
 62
               9
100
AcDbLine
 10
-420.99829645918726
 20
1505.5386093640809
 30
0.0
 11
-450.83395359761101
 21
1508.6744606230573
 31
0.0
  0
TEXT
  5
18F
100
AcDbEntity
  8
LAYER064
 62
               7
100
AcDbText
 10
-1142.9982964591873
 20
1517.5386093640809
 30
0.0
 40
42.0
  1
1276
 72
               5
 11
-974.99829645918726
 21
1517.5386093640809
 31
0.0
100
AcDbText
  0
ENDBLK
  5
190
100
AcDbEntity
  8
0
100
AcDbBlockEnd
  0
BLOCK
  5
191
100
AcDbEntity
  8
0
100
AcDbBlockBegin
  2
GROUP_5
 70
               0
 10
0.0
 20
0.0
 30
0.0
  3
GROUP_5
  1

  0
LINE
  5
192
100
AcDbEntity
  8
LAYER064
  6
CONTINUOUS
 62
               9
100
AcDbLine
 10
-471.99829645918726
 20
84.538609364081026
 30
0.0
 11
-168.99829645918726
 21
84.538609364081026
 31
0.0
  0
LINE
  5
193
100
AcDbEntity
  8
LAYER064
  6
CONTINUOUS
 62
               9
100
AcDbLine
 10
-446.99829645918726
 20
59.538609364081026
 30
0.0
 11
-168.99829645918726
 21
59.538609364081026
 31
0.0
  0
LINE
  5
194
100
AcDbEntity
  8
LAYER064
  6
CONTINUOUS
 62
               9
100
AcDbLine
 10
-180.99829645918726
 20
59.538609364081026
 30
0.0
 11
-180.99829645918726
 21
84.538609364081026
 31
0.0
  0
LINE
  5
195
100
AcDbEntity
  8
LAYER064
  6
CONTINUOUS
 62
               9
100
AcDbLine
 10
-471.99829645918726
 20
1034.5386093640809
 30
0.0
 11
-168.99829645918726
 21
1034.5386093640809
 31
0.0
  0
LINE
  5
196
100
AcDbEntity
  8
LAYER064
  6
CONTINUOUS
 62
               9
100
AcDbLine
 10
-446.99829645918726
 20
1059.5386093640809
 30
0.0
 11
-168.99829645918726
 21
1059.5386093640809
 31
0.0
  0
LINE
  5
197
100
AcDbEntity
  8
LAYER064
  6
CONTINUOUS
 62
               9
100
AcDbLine
 10
-180.99829645918726
 20
1034.5386093640809
 30
0.0
 11
-180.99829645918726
 21
1059.5386093640809
 31
0.0
  0
LINE
  5
198
100
AcDbEntity
  8
LAYER064
  6
CONTINUOUS
 62
               9
100
AcDbLine
 10
-180.99829645918726
 20
84.538609364081026
 30
0.0
 11
-180.99829645918726
 21
1034.5386093640809
 31
0.0
  0
LINE
  5
199
100
AcDbEntity
  8
LAYER064
  6
CONTINUOUS
 62
               9
100
AcDbLine
 10
-180.99829645918726
 20
84.538609364081026
 30
0.0
 11
-184.13415035721687
 21
114.37426622512922
 31
0.0
  0
LINE
  5
19A
100
AcDbEntity
  8
LAYER064
  6
CONTINUOUS
 62
               9
100
AcDbLine
 10
-180.99829645918726
 20
84.538609364081026
 30
0.0
 11
-177.86244256115765
 21
114.37426622512922
 31
0.0
  0
LINE
  5
19B
100
AcDbEntity
  8
LAYER064
  6
CONTINUOUS
 62
               9
100
AcDbLine
 10
-180.99829645918726
 20
1034.5386093640809
 30
0.0
 11
-177.86244520021083
 21
1004.7029522256572
 31
0.0
  0
LINE
  5
19C
100
AcDbEntity
  8
LAYER064
  6
CONTINUOUS
 62
               9
100
AcDbLine
 10
-180.99829645918726
 20
1034.5386093640809
 30
0.0
 11
-184.13414771816369
 21
1004.7029522256572
 31
0.0
  0
LINE
  5
19D
100
AcDbEntity
  8
LAYER064
  6
CONTINUOUS
 62
               9
100
AcDbLine
 10
-180.99829645918726
 20
1203.5386093640809
 30
0.0
 11
-180.99829645918726
 21
1059.5386093640809
 31
0.0
  0
LINE
  5
19E
100
AcDbEntity
  8
LAYER064
  6
CONTINUOUS
 62
               9
100
AcDbLine
 10
-180.99829645918726
 20
1059.5386093640809
 30
0.0
 11
-184.13414771816369
 21
1089.3742665025047
 31
0.0
  0
LINE
  5
19F
100
AcDbEntity
  8
LAYER064
  6
CONTINUOUS
 62
               9
100
AcDbLine
 10
-180.99829645918726
 20
1059.5386093640809
 30
0.0
 11
-177.8624452002108
 21
1089.3742665025047
 31
0.0
  0
LINE
  5
1A0
100
AcDbEntity
  8
LAYER064
  6
CONTINUOUS
 62
               9
100
AcDbLine
 10
-180.99829645918729
 20
-152.17626774646061
 30
0.0
 11
-180.99829645918726
 21
59.538609364081026
 31
0.0
  0
LINE
  5
1A1
100
AcDbEntity
  8
LAYER064
  6
CONTINUOUS
 62
               9
100
AcDbLine
 10
-180.99829645918726
 20
59.538609364081026
 30
0.0
 11
-177.86244520021083
 21
29.702952225657278
 31
0.0
  0
LINE
  5
1A2
100
AcDbEntity
  8
LAYER064
  6
CONTINUOUS
 62
               9
100
AcDbLine
 10
-180.99829645918726
 20
59.538609364081026
 30
0.0
 11
-184.13414771816372
 21
29.702952225657281
 31
0.0
  0
TEXT
  5
1A3
100
AcDbEntity
  8
LAYER064
 62
               7
100
AcDbText
 10
-192.99829645918726
 20
-140.17626774646061
 30
0.0
 40
42.0
  1
25
 50
89.999999999999801
 72
               5
 11
-192.99829645918726
 21
-56.176267746460624
 31
0.0
100
AcDbText
  0
TEXT
  5
1A4
100
AcDbEntity
  8
LAYER064
 62
               7
100
AcDbText
 10
-192.99829645918726
 20
328.53860936408091
 30
0.0
 40
42.0
  1
950（P50×19）
 50
89.999999999999801
 72
               5
 11
-192.99829645918726
 21
790.53860936408091
 31
0.0
100
AcDbText
  0
TEXT
  5
1A5
100
AcDbEntity
  8
LAYER064
 62
               7
100
AcDbText
 10
-192.99829645918726
 20
1107.5386093640809
 30
0.0
 40
42.0
  1
25
 50
89.999999999999801
 72
               5
 11
-192.99829645918726
 21
1191.5386093640809
 31
0.0
100
AcDbText
  0
ENDBLK
  5
1A6
100
AcDbEntity
  8
0
100
AcDbBlockEnd
  0
BLOCK
  5
1A7
100
AcDbEntity
  8
0
100
AcDbBlockBegin
  2
GROUP_6
 70
               0
 10
0.0
 20
0.0
 30
0.0
  3
GROUP_6
  1

  0
LINE
  5
1A8
100
AcDbEntity
  8
LAYER064
  6
CONTINUOUS
 62
               9
100
AcDbLine
 10
-446.99829645918726
 20
1059.5386093640809
 30
0.0
 11
-48.998296459187259
 21
1059.5386093640809
 31
0.0
  0
LINE
  5
1A9
100
AcDbEntity
  8
LAYER064
  6
CONTINUOUS
 62
               9
100
AcDbLine
 10
-446.99829645918726
 20
59.538609364081026
 30
0.0
 11
-48.998296459187259
 21
59.538609364081026
 31
0.0
  0
LINE
  5
1AA
100
AcDbEntity
  8
LAYER064
  6
CONTINUOUS
 62
               9
100
AcDbLine
 10
-60.998296459187259
 20
1059.5386093640809
 30
0.0
 11
-60.998296459187259
 21
59.538609364081026
 31
0.0
  0
LINE
  5
1AB
100
AcDbEntity
  8
LAYER064
  6
CONTINUOUS
 62
               9
100
AcDbLine
 10
-60.998296459187259
 20
1059.5386093640809
 30
0.0
 11
-57.862442561157657
 21
1029.7029525030327
 31
0.0
  0
LINE
  5
1AC
100
AcDbEntity
  8
LAYER064
  6
CONTINUOUS
 62
               9
100
AcDbLine
 10
-60.998296459187259
 20
1059.5386093640809
 30
0.0
 11
-64.134150357216853
 21
1029.7029525030327
 31
0.0
  0
LINE
  5
1AD
100
AcDbEntity
  8
LAYER064
  6
CONTINUOUS
 62
               9
100
AcDbLine
 10
-60.998296459187259
 20
59.538609364081026
 30
0.0
 11
-64.134147718163703
 21
89.374266502504767
 31
0.0
  0
LINE
  5
1AE
100
AcDbEntity
  8
LAYER064
  6
CONTINUOUS
 62
               9
100
AcDbLine
 10
-60.998296459187259
 20
59.538609364081026
 30
0.0
 11
-57.862445200210814
 21
89.374266502504767
 31
0.0
  0
TEXT
  5
1AF
100
AcDbEntity
  8
LAYER064
 62
               7
100
AcDbText
 10
-72.998296459187259
 20
475.53860936408091
 30
0.0
 40
42.0
  1
1000
 50
89.999999999999801
 72
               5
 11
-72.998296459187259
 21
643.53860936408091
 31
0.0
100
AcDbText
  0
ENDBLK
  5
1B0
100
AcDbEntity
  8
0
100
AcDbBlockEnd
  0
BLOCK
  5
1B1
100
AcDbEntity
  8
0
100
AcDbBlockBegin
  2
GROUP_7
 70
               0
 10
0.0
 20
0.0
 30
0.0
  3
GROUP_7
  1

  0
LINE
  5
1B2
100
AcDbEntity
  8
LAYER064
  6
CONTINUOUS
 62
               9
100
AcDbLine
 10
-434.99829645918726
 20
1071.5386093640809
 30
0.0
 11
71.001703540812741
 21
1071.5386093640809
 31
0.0
  0
LINE
  5
1B3
100
AcDbEntity
  8
LAYER064
  6
CONTINUOUS
 62
               9
100
AcDbLine
 10
-434.99829645918726
 20
47.538609364080855
 30
0.0
 11
71.001703540812741
 21
47.538609364080855
 31
0.0
  0
LINE
  5
1B4
100
AcDbEntity
  8
LAYER064
  6
CONTINUOUS
 62
               9
100
AcDbLine
 10
59.001703540812741
 20
1071.5386093640809
 30
0.0
 11
59.001703540812741
 21
47.538609364080855
 31
0.0
  0
LINE
  5
1B5
100
AcDbEntity
  8
LAYER064
  6
CONTINUOUS
 62
               9
100
AcDbLine
 10
59.001703540812741
 20
1071.5386093640809
 30
0.0
 11
62.137557438842343
 21
1041.7029525030327
 31
0.0
  0
LINE
  5
1B6
100
AcDbEntity
  8
LAYER064
  6
CONTINUOUS
 62
               9
100
AcDbLine
 10
59.001703540812741
 20
1071.5386093640809
 30
0.0
 11
55.865849642783139
 21
1041.7029525030327
 31
0.0
  0
LINE
  5
1B7
100
AcDbEntity
  8
LAYER064
  6
CONTINUOUS
 62
               9
100
AcDbLine
 10
59.001703540812741
 20
47.538609364080855
 30
0.0
 11
55.865852281836297
 21
77.374266502504597
 31
0.0
  0
LINE
  5
1B8
100
AcDbEntity
  8
LAYER064
  6
CONTINUOUS
 62
               9
100
AcDbLine
 10
59.001703540812741
 20
47.538609364080855
 30
0.0
 11
62.137554799789186
 21
77.374266502504597
 31
0.0
  0
TEXT
  5
1B9
100
AcDbEntity
  8
LAYER064
 62
               7
100
AcDbText
 10
47.001703540812734
 20
475.53860936408091
 30
0.0
 40
42.0
  1
1024
 50
89.999999999999801
 72
               5
 11
47.001703540812748
 21
643.53860936408091
 31
0.0
100
AcDbText
  0
ENDBLK
  5
1BA
100
AcDbEntity
  8
0
100
AcDbBlockEnd
  0
BLOCK
  5
1BB
100
AcDbEntity
  8
0
100
AcDbBlockBegin
  2
GROUP_8
 70
               0
 10
0.0
 20
0.0
 30
0.0
  3
GROUP_8
  1

  0
LINE
  5
1BC
100
AcDbEntity
  8
LAYER064
  6
CONTINUOUS
 62
               9
100
AcDbLine
 10
-408.99829645918726
 20
-22.461390635919145
 30
0.0
 11
191.00170354081274
 21
-22.461390635919145
 31
0.0
  0
LINE
  5
1BD
100
AcDbEntity
  8
LAYER064
  6
CONTINUOUS
 62
               9
100
AcDbLine
 10
-408.99829645918726
 20
1097.5386093640809
 30
0.0
 11
191.00170354081274
 21
1097.5386093640809
 31
0.0
  0
LINE
  5
1BE
100
AcDbEntity
  8
LAYER064
  6
CONTINUOUS
 62
               9
100
AcDbLine
 10
179.00170354081274
 20
-22.461390635919145
 30
0.0
 11
179.00170354081274
 21
1097.5386093640809
 31
0.0
  0
LINE
  5
1BF
100
AcDbEntity
  8
LAYER064
  6
CONTINUOUS
 62
               9
100
AcDbLine
 10
179.00170354081274
 20
-22.461390635919145
 30
0.0
 11
175.86584964278313
 21
7.3742662251290554
 31
0.0
  0
LINE
  5
1C0
100
AcDbEntity
  8
LAYER064
  6
CONTINUOUS
 62
               9
100
AcDbLine
 10
179.00170354081274
 20
-22.461390635919145
 30
0.0
 11
182.13755743884235
 21
7.3742662251290554
 31
0.0
  0
LINE
  5
1C1
100
AcDbEntity
  8
LAYER064
  6
CONTINUOUS
 62
               9
100
AcDbLine
 10
179.00170354081274
 20
1097.5386093640809
 30
0.0
 11
182.13755479978917
 21
1067.7029522256571
 31
0.0
  0
LINE
  5
1C2
100
AcDbEntity
  8
LAYER064
  6
CONTINUOUS
 62
               9
100
AcDbLine
 10
179.00170354081274
 20
1097.5386093640809
 30
0.0
 11
175.86585228183631
 21
1067.7029522256571
 31
0.0
  0
TEXT
  5
1C3
100
AcDbEntity
  8
LAYER064
 62
               7
100
AcDbText
 10
167.00170354081274
 20
453.53860936408091
 30
0.0
 40
42.0
  1
1120
 50
89.999999999999801
 72
               5
 11
167.00170354081274
 21
621.53860936408091
 31
0.0
100
AcDbText
  0
ENDBLK
  5
1C4
100
AcDbEntity
  8
0
100
AcDbBlockEnd
  0
BLOCK
  5
1C5
100
AcDbEntity
  8
0
100
AcDbBlockBegin
  2
GROUP_9
 70
               0
 10
0.0
 20
0.0
 30
0.0
  3
GROUP_9
  1

  0
LINE
  5
1C6
100
AcDbEntity
  8
0
  6
CONTINUOUS
 62
               3
100
AcDbLine
 10
-511.69829645918617
 20
-950.46139063591932
 30
0.0
 11
-511.69829645918617
 21
-959.84480988218831
 31
0.0
  0
LINE
  5
1C7
100
AcDbEntity
  8
0
  6
CONTINUOUS
 62
               3
100
AcDbLine
 10
-516.02842347810838
 20
-961.4613906359192
 30
0.0
 11
-541.96816944026432
 21
-961.4613906359192
 31
0.0
  0
LINE
  5
1C8
100
AcDbEntity
  8
0
  6
CONTINUOUS
 62
               3
100
AcDbLine
 10
-546.29829645918653
 20
-950.46139063591932
 30
0.0
 11
-546.29829645918653
 21
-959.84480988218831
 31
0.0
  0
LINE
  5
1C9
100
AcDbEntity
  8
0
  6
CONTINUOUS
 62
               3
100
AcDbLine
 10
-537.63804242134211
 20
-950.46139063591932
 30
0.0
 11
-537.63804242134211
 21
-959.84480988218831
 31
0.0
  0
ARC
  5
1CA
100
AcDbEntity
  8
0
  6
CONTINUOUS
 62
               3
100
AcDbCircle
 10
-516.02842347810838
 20
-954.85382300156868
 30
0.0
 40
6.6075676343505885
100
AcDbArc
 50
229.05544096051565
 51
310.94455903948312
  0
ARC
  5
1CB
100
AcDbEntity
  8
0
  6
CONTINUOUS
 62
               3
100
AcDbCircle
 10
-541.96816944026432
 20
-954.85382300156868
 30
0.0
 40
6.6075676343505885
100
AcDbArc
 50
229.05544096051565
 51
310.94455903948312
  0
ARC
  5
1CC
100
AcDbEntity
  8
0
  6
CONTINUOUS
 62
               3
100
AcDbCircle
 10
-528.99829645918726
 20
-937.5657258367404
 30
0.0
 40
23.895664799178892
100
AcDbArc
 50
248.80389248660356
 51
291.19610751339525
  0
ENDBLK
  5
1CD
100
AcDbEntity
  8
0
100
AcDbBlockEnd
  0
BLOCK
  5
1CE
100
AcDbEntity
  8
0
100
AcDbBlockBegin
  2
GROUP_10
 70
               0
 10
0.0
 20
0.0
 30
0.0
  3
GROUP_10
  1

  0
LINE
  5
1CF
100
AcDbEntity
  8
0
  6
CONTINUOUS
 62
               3
100
AcDbLine
 10
-538.99829645918726
 20
-1001.4613906359191
 30
0.0
 11
-538.99829645918726
 21
-961.4613906359192
 31
0.0
  0
LINE
  5
1D0
100
AcDbEntity
  8
0
  6
CONTINUOUS
 62
               3
100
AcDbLine
 10
-518.99829645918726
 20
-1001.4613906359191
 30
0.0
 11
-518.99829645918726
 21
-961.4613906359192
 31
0.0
  0
ENDBLK
  5
1D1
100
AcDbEntity
  8
0
100
AcDbBlockEnd
  0
BLOCK
  5
1D2
100
AcDbEntity
  8
0
100
AcDbBlockBegin
  2
GROUP_11
 70
               0
 10
0.0
 20
0.0
 30
0.0
  3
GROUP_11
  1

  0
LINE
  5
1D3
100
AcDbEntity
  8
0
  6
CONTINUOUS
 62
               3
100
AcDbLine
 10
-1606.2982964591865
 20
-950.46139063591932
 30
0.0
 11
-1606.2982964591865
 21
-959.84480988218831
 31
0.0
  0
LINE
  5
1D4
100
AcDbEntity
  8
0
  6
CONTINUOUS
 62
               3
100
AcDbLine
 10
-1601.9681694402643
 20
-961.4613906359192
 30
0.0
 11
-1576.0284234781084
 21
-961.4613906359192
 31
0.0
  0
LINE
  5
1D5
100
AcDbEntity
  8
0
  6
CONTINUOUS
 62
               3
100
AcDbLine
 10
-1571.6982964591862
 20
-950.46139063591932
 30
0.0
 11
-1571.6982964591862
 21
-959.84480988218831
 31
0.0
  0
LINE
  5
1D6
100
AcDbEntity
  8
0
  6
CONTINUOUS
 62
               3
100
AcDbLine
 10
-1580.3585504970306
 20
-950.46139063591932
 30
0.0
 11
-1580.3585504970306
 21
-959.84480988218831
 31
0.0
  0
ARC
  5
1D7
100
AcDbEntity
  8
0
  6
CONTINUOUS
 62
               3
100
AcDbCircle
 10
-1601.9681694402643
 20
-954.85382300156868
 30
0.0
 40
6.6075676343505885
100
AcDbArc
 50
229.05544096051565
 51
310.94455903948312
  0
ARC
  5
1D8
100
AcDbEntity
  8
0
  6
CONTINUOUS
 62
               3
100
AcDbCircle
 10
-1576.0284234781084
 20
-954.85382300156868
 30
0.0
 40
6.6075676343505885
100
AcDbArc
 50
229.05544096051565
 51
310.94455903948312
  0
ARC
  5
1D9
100
AcDbEntity
  8
0
  6
CONTINUOUS
 62
               3
100
AcDbCircle
 10
-1588.9982964591873
 20
-937.5657258367404
 30
0.0
 40
23.895664799178892
100
AcDbArc
 50
248.80389248660356
 51
291.19610751339525
  0
ENDBLK
  5
1DA
100
AcDbEntity
  8
0
100
AcDbBlockEnd
  0
BLOCK
  5
1DB
100
AcDbEntity
  8
0
100
AcDbBlockBegin
  2
GROUP_12
 70
               0
 10
0.0
 20
0.0
 30
0.0
  3
GROUP_12
  1

  0
LINE
  5
1DC
100
AcDbEntity
  8
0
  6
CONTINUOUS
 62
               3
100
AcDbLine
 10
-1578.9982964591873
 20
-1001.4613906359191
 30
0.0
 11
-1578.9982964591873
 21
-961.4613906359192
 31
0.0
  0
LINE
  5
1DD
100
AcDbEntity
  8
0
  6
CONTINUOUS
 62
               3
100
AcDbLine
 10
-1598.9982964591873
 20
-1001.4613906359191
 30
0.0
 11
-1598.9982964591873
 21
-961.4613906359192
 31
0.0
  0
ENDBLK
  5
1DE
100
AcDbEntity
  8
0
100
AcDbBlockEnd
  0
BLOCK
  5
1DF
100
AcDbEntity
  8
0
100
AcDbBlockBegin
  2
GROUP_13
 70
               0
 10
0.0
 20
0.0
 30
0.0
  3
GROUP_13
  1

  0
LINE
  5
1E0
100
AcDbEntity
  8
LAYER032
  6
CONTINUOUS
 62
             150
100
AcDbLine
 10
-1060.5533553931127
 20
-393.96014000634534
 30
0.0
 11
-1060.5533553931127
 21
-391.53541768131856
 31
0.0
  0
LINE
  5
1E1
100
AcDbEntity
  8
LAYER032
  6
CONTINUOUS
 62
             150
100
AcDbLine
 10
-1058.5326294509505
 20
-393.96014000634534
 30
0.0
 11
-1058.5326294509505
 21
-391.53541768131856
 31
0.0
  0
LINE
  5
1E2
100
AcDbEntity
  8
LAYER032
  6
CONTINUOUS
 62
             150
100
AcDbLine
 10
-1060.5533553931127
 20
-393.96014000634534
 30
0.0
 11
-1052.4533553931142
 21
-393.96014000634557
 31
0.0
  0
LINE
  5
1E3
100
AcDbEntity
  8
LAYER032
  6
CONTINUOUS
 62
             150
100
AcDbLine
 10
-1059.5429924220316
 20
-391.16014000634539
 30
0.0
 11
-1053.4637183641953
 21
-391.16014000634561
 31
0.0
  0
LINE
  5
1E4
100
AcDbEntity
  8
LAYER032
  6
CONTINUOUS
 62
             150
100
AcDbLine
 10
-1052.4533553931142
 20
-393.96014000634557
 30
0.0
 11
-1052.4533553931142
 21
-391.53541768131879
 31
0.0
  0
LINE
  5
1E5
100
AcDbEntity
  8
LAYER032
  6
CONTINUOUS
 62
             150
100
AcDbLine
 10
-1054.4740813352764
 20
-393.96014000634557
 30
0.0
 11
-1054.4740813352764
 21
-391.53541768131879
 31
0.0
  0
ARC
  5
1E6
100
AcDbEntity
  8
LAYER032
  6
CONTINUOUS
 62
             150
100
AcDbCircle
 10
-1059.5429924220316
 20
-392.70788284336516
 30
0.0
 40
1.5477428370198298
100
AcDbArc
 50
49.24712957232741
 51
130.75287042767206
  0
ARC
  5
1E7
100
AcDbEntity
  8
LAYER032
  6
CONTINUOUS
 62
             150
100
AcDbCircle
 10
-1053.4637183641953
 20
-392.70788284336538
 30
0.0
 40
1.5477428370198298
100
AcDbArc
 50
49.24712957232741
 51
130.75287042767206
  0
ARC
  5
1E8
100
AcDbEntity
  8
LAYER032
  6
CONTINUOUS
 62
             150
100
AcDbCircle
 10
-1056.5033553931135
 20
-396.83432051207944
 30
0.0
 40
5.6741805057339203
100
AcDbArc
 50
69.045100081840488
 51
110.954899918159
  0
LINE
  5
1E9
100
AcDbEntity
  8
LAYER032
  6
CONTINUOUS
 62
             150
100
AcDbLine
 10
-1052.7033553931142
 20
-394.96014000634557
 30
0.0
 11
-1052.7033553931142
 21
-393.96014000634557
 31
0.0
  0
LINE
  5
1EA
100
AcDbEntity
  8
LAYER032
  6
CONTINUOUS
 62
             150
100
AcDbLine
 10
-1060.3033553931127
 20
-394.96014000634534
 30
0.0
 11
-1060.3033553931127
 21
-393.96014000634534
 31
0.0
  0
ENDBLK
  5
1EB
100
AcDbEntity
  8
0
100
AcDbBlockEnd
  0
BLOCK
  5
1EC
100
AcDbEntity
  8
0
100
AcDbBlockBegin
  2
GROUP_14
 70
               0
 10
0.0
 20
0.0
 30
0.0
  3
GROUP_14
  1

  0
LINE
  5
1ED
100
AcDbEntity
  8
LAYER032
  6
CONTINUOUS
 62
             150
100
AcDbLine
 10
-1052.4533553931142
 20
-398.96014000634557
 30
0.0
 11
-1052.4533553931142
 21
-401.38486233137235
 31
0.0
  0
LINE
  5
1EE
100
AcDbEntity
  8
LAYER032
  6
CONTINUOUS
 62
             150
100
AcDbLine
 10
-1054.4740813352764
 20
-398.96014000634557
 30
0.0
 11
-1054.4740813352764
 21
-401.38486233137235
 31
0.0
  0
LINE
  5
1EF
100
AcDbEntity
  8
LAYER032
  6
CONTINUOUS
 62
             150
100
AcDbLine
 10
-1052.4533553931142
 20
-398.96014000634557
 30
0.0
 11
-1060.5533553931127
 21
-398.96014000634534
 31
0.0
  0
LINE
  5
1F0
100
AcDbEntity
  8
LAYER032
  6
CONTINUOUS
 62
             150
100
AcDbLine
 10
-1053.4637183641953
 20
-401.76014000634552
 30
0.0
 11
-1059.5429924220316
 21
-401.7601400063453
 31
0.0
  0
LINE
  5
1F1
100
AcDbEntity
  8
LAYER032
  6
CONTINUOUS
 62
             150
100
AcDbLine
 10
-1060.5533553931127
 20
-398.96014000634534
 30
0.0
 11
-1060.5533553931127
 21
-401.38486233137212
 31
0.0
  0
LINE
  5
1F2
100
AcDbEntity
  8
LAYER032
  6
CONTINUOUS
 62
             150
100
AcDbLine
 10
-1058.5326294509505
 20
-398.96014000634534
 30
0.0
 11
-1058.5326294509505
 21
-401.38486233137212
 31
0.0
  0
ARC
  5
1F3
100
AcDbEntity
  8
LAYER032
  6
CONTINUOUS
 62
             150
100
AcDbCircle
 10
-1053.4637183641953
 20
-400.21239716932575
 30
0.0
 40
1.5477428370198298
100
AcDbArc
 50
229.24712957232703
 51
310.75287042767167
  0
ARC
  5
1F4
100
AcDbEntity
  8
LAYER032
  6
CONTINUOUS
 62
             150
100
AcDbCircle
 10
-1059.5429924220316
 20
-400.21239716932553
 30
0.0
 40
1.5477428370198298
100
AcDbArc
 50
229.24712957232703
 51
310.75287042767167
  0
ARC
  5
1F5
100
AcDbEntity
  8
LAYER032
  6
CONTINUOUS
 62
             150
100
AcDbCircle
 10
-1056.5033553931135
 20
-396.08595950061169
 30
0.0
 40
5.6741805057339203
100
AcDbArc
 50
249.0451000818401
 51
290.95489991815862
  0
LINE
  5
1F6
100
AcDbEntity
  8
LAYER032
  6
CONTINUOUS
 62
             150
100
AcDbLine
 10
-1060.3033553931127
 20
-397.96014000634534
 30
0.0
 11
-1060.3033553931127
 21
-398.96014000634534
 31
0.0
  0
LINE
  5
1F7
100
AcDbEntity
  8
LAYER032
  6
CONTINUOUS
 62
             150
100
AcDbLine
 10
-1052.7033553931142
 20
-397.96014000634557
 30
0.0
 11
-1052.7033553931142
 21
-398.96014000634557
 31
0.0
  0
ENDBLK
  5
1F8
100
AcDbEntity
  8
0
100
AcDbBlockEnd
  0
BLOCK
  5
1F9
100
AcDbEntity
  8
0
100
AcDbBlockBegin
  2
GROUP_15
 70
               0
 10
0.0
 20
0.0
 30
0.0
  3
GROUP_15
  1

  0
LINE
  5
1FA
100
AcDbEntity
  8
LAYER032
  6
CONTINUOUS
 62
             150
100
AcDbLine
 10
-1053.0033553931135
 20
-417.4613906359192
 30
0.0
 11
-1060.0033553931135
 21
-417.46139063591897
 31
0.0
  0
LINE
  5
1FB
100
AcDbEntity
  8
LAYER032
  6
CONTINUOUS
 62
             150
100
AcDbLine
 10
-1053.0033553931135
 20
-417.4613906359192
 30
0.0
 11
-1053.0713921362294
 21
-418.75960903110024
 31
0.0
  0
LINE
  5
1FC
100
AcDbEntity
  8
LAYER032
  6
CONTINUOUS
 62
             150
100
AcDbLine
 10
-1060.0033553931135
 20
-417.46139063591897
 30
0.0
 11
-1059.9353186499975
 21
-418.75960903110001
 31
0.0
  0
ARC
  5
1FD
100
AcDbEntity
  8
LAYER032
  6
CONTINUOUS
 62
             150
100
AcDbCircle
 10
-1054.0334433432199
 20
-418.70919006378529
 30
0.0
 40
0.9633714741142343
100
AcDbArc
 50
288.84896882759108
 51
356.99999999999915
  0
ARC
  5
1FE
100
AcDbEntity
  8
LAYER032
  6
CONTINUOUS
 62
             150
100
AcDbCircle
 10
-1058.973267443007
 20
-418.70919006378506
 30
0.0
 40
0.9633714741142343
100
AcDbArc
 50
182.99999999999955
 51
251.15103117240761
  0
ARC
  5
1FF
100
AcDbEntity
  8
LAYER032
  6
CONTINUOUS
 62
             150
100
AcDbCircle
 10
-1056.5033553931135
 20
-411.06139063591934
 30
0.0
 40
9.0
100
AcDbArc
 50
251.99999999999937
 51
287.99999999999932
  0
LINE
  5
200
100
AcDbEntity
  8
LAYER032
  6
CONTINUOUS
 62
             150
100
AcDbLine
 10
-1058.5033553931135
 20
-417.46139063591897
 30
0.0
 11
-1058.5033553931135
 21
-401.76014000634541
 31
0.0
  0
LINE
  5
201
100
AcDbEntity
  8
LAYER032
  6
CONTINUOUS
 62
             150
100
AcDbLine
 10
-1058.5033553931135
 20
-391.13041852473225
 30
0.0
 11
-1058.5033553931135
 21
-387.46139063591914
 31
0.0
  0
LINE
  5
202
100
AcDbEntity
  8
LAYER032
  6
CONTINUOUS
 62
             150
100
AcDbLine
 10
-1054.5033553931135
 20
-417.4613906359192
 30
0.0
 11
-1054.5033553931135
 21
-401.76014000634552
 31
0.0
  0
LINE
  5
203
100
AcDbEntity
  8
LAYER032
  6
CONTINUOUS
 62
             150
100
AcDbLine
 10
-1054.5033553931135
 20
-391.13041852473248
 30
0.0
 11
-1054.5033553931135
 21
-387.46139063591914
 31
0.0
  0
ENDBLK
  5
204
100
AcDbEntity
  8
0
100
AcDbBlockEnd
  0
BLOCK
  5
205
100
AcDbEntity
  8
0
100
AcDbBlockBegin
  2
GROUP_16
 70
               0
 10
0.0
 20
0.0
 30
0.0
  3
GROUP_16
  1

  0
LINE
  5
206
100
AcDbEntity
  8
0
  6
CONTINUOUS
 62
               3
100
AcDbLine
 10
698.30170354081383
 20
-950.46139063591932
 30
0.0
 11
698.30170354081383
 21
-959.84480988218831
 31
0.0
  0
LINE
  5
207
100
AcDbEntity
  8
0
  6
CONTINUOUS
 62
               3
100
AcDbLine
 10
693.97157652189162
 20
-961.4613906359192
 30
0.0
 11
668.03183055973568
 21
-961.4613906359192
 31
0.0
  0
LINE
  5
208
100
AcDbEntity
  8
0
  6
CONTINUOUS
 62
               3
100
AcDbLine
 10
663.70170354081347
 20
-950.46139063591932
 30
0.0
 11
663.70170354081347
 21
-959.84480988218831
 31
0.0
  0
LINE
  5
209
100
AcDbEntity
  8
0
  6
CONTINUOUS
 62
               3
100
AcDbLine
 10
672.36195757865789
 20
-950.46139063591932
 30
0.0
 11
672.36195757865789
 21
-959.84480988218831
 31
0.0
  0
ARC
  5
20A
100
AcDbEntity
  8
0
  6
CONTINUOUS
 62
               3
100
AcDbCircle
 10
693.97157652189162
 20
-954.85382300156868
 30
0.0
 40
6.6075676343505885
100
AcDbArc
 50
229.05544096051565
 51
310.94455903948312
  0
ARC
  5
20B
100
AcDbEntity
  8
0
  6
CONTINUOUS
 62
               3
100
AcDbCircle
 10
668.03183055973568
 20
-954.85382300156868
 30
0.0
 40
6.6075676343505885
100
AcDbArc
 50
229.05544096051565
 51
310.94455903948312
  0
ARC
  5
20C
100
AcDbEntity
  8
0
  6
CONTINUOUS
 62
               3
100
AcDbCircle
 10
681.00170354081274
 20
-937.5657258367404
 30
0.0
 40
23.895664799178892
100
AcDbArc
 50
248.80389248660356
 51
291.19610751339525
  0
ENDBLK
  5
20D
100
AcDbEntity
  8
0
100
AcDbBlockEnd
  0
BLOCK
  5
20E
100
AcDbEntity
  8
0
100
AcDbBlockBegin
  2
GROUP_17
 70
               0
 10
0.0
 20
0.0
 30
0.0
  3
GROUP_17
  1

  0
LINE
  5
20F
100
AcDbEntity
  8
0
  6
CONTINUOUS
 62
               3
100
AcDbLine
 10
671.00170354081274
 20
-1001.4613906359191
 30
0.0
 11
671.00170354081274
 21
-961.4613906359192
 31
0.0
  0
LINE
  5
210
100
AcDbEntity
  8
0
  6
CONTINUOUS
 62
               3
100
AcDbLine
 10
691.00170354081274
 20
-1001.4613906359191
 30
0.0
 11
691.00170354081274
 21
-961.4613906359192
 31
0.0
  0
ENDBLK
  5
211
100
AcDbEntity
  8
0
100
AcDbBlockEnd
  0
BLOCK
  5
212
100
AcDbEntity
  8
0
100
AcDbBlockBegin
  2
GROUP_18
 70
               0
 10
0.0
 20
0.0
 30
0.0
  3
GROUP_18
  1

  0
LINE
  5
213
100
AcDbEntity
  8
0
  6
CONTINUOUS
 62
               3
100
AcDbLine
 10
1523.7017035408135
 20
-950.46139063591932
 30
0.0
 11
1523.7017035408135
 21
-959.84480988218831
 31
0.0
  0
LINE
  5
214
100
AcDbEntity
  8
0
  6
CONTINUOUS
 62
               3
100
AcDbLine
 10
1528.0318305597357
 20
-961.4613906359192
 30
0.0
 11
1553.9715765218916
 21
-961.4613906359192
 31
0.0
  0
LINE
  5
215
100
AcDbEntity
  8
0
  6
CONTINUOUS
 62
               3
100
AcDbLine
 10
1558.3017035408138
 20
-950.46139063591932
 30
0.0
 11
1558.3017035408138
 21
-959.84480988218831
 31
0.0
  0
LINE
  5
216
100
AcDbEntity
  8
0
  6
CONTINUOUS
 62
               3
100
AcDbLine
 10
1549.6414495029694
 20
-950.46139063591932
 30
0.0
 11
1549.6414495029694
 21
-959.84480988218831
 31
0.0
  0
ARC
  5
217
100
AcDbEntity
  8
0
  6
CONTINUOUS
 62
               3
100
AcDbCircle
 10
1528.0318305597357
 20
-954.85382300156868
 30
0.0
 40
6.6075676343505885
100
AcDbArc
 50
229.05544096051565
 51
310.94455903948312
  0
ARC
  5
218
100
AcDbEntity
  8
0
  6
CONTINUOUS
 62
               3
100
AcDbCircle
 10
1553.9715765218916
 20
-954.85382300156868
 30
0.0
 40
6.6075676343505885
100
AcDbArc
 50
229.05544096051565
 51
310.94455903948312
  0
ARC
  5
219
100
AcDbEntity
  8
0
  6
CONTINUOUS
 62
               3
100
AcDbCircle
 10
1541.0017035408127
 20
-937.5657258367404
 30
0.0
 40
23.895664799178892
100
AcDbArc
 50
248.80389248660356
 51
291.19610751339525
  0
ENDBLK
  5
21A
100
AcDbEntity
  8
0
100
AcDbBlockEnd
  0
BLOCK
  5
21B
100
AcDbEntity
  8
0
100
AcDbBlockBegin
  2
GROUP_19
 70
               0
 10
0.0
 20
0.0
 30
0.0
  3
GROUP_19
  1

  0
LINE
  5
21C
100
AcDbEntity
  8
0
  6
CONTINUOUS
 62
               3
100
AcDbLine
 10
1551.0017035408127
 20
-1001.4613906359191
 30
0.0
 11
1551.0017035408127
 21
-961.4613906359192
 31
0.0
  0
LINE
  5
21D
100
AcDbEntity
  8
0
  6
CONTINUOUS
 62
               3
100
AcDbLine
 10
1531.0017035408127
 20
-1001.4613906359191
 30
0.0
 11
1531.0017035408127
 21
-961.4613906359192
 31
0.0
  0
ENDBLK
  5
21E
100
AcDbEntity
  8
0
100
AcDbBlockEnd
  0
BLOCK
  5
21F
100
AcDbEntity
  8
0
100
AcDbBlockBegin
  2
GROUP_20
 70
               0
 10
0.0
 20
0.0
 30
0.0
  3
GROUP_20
  1

  0
LINE
  5
220
100
AcDbEntity
  8
LAYER064
  6
CONTINUOUS
 62
               9
100
AcDbLine
 10
-486.99829645918726
 20
-1030.4613906359191
 30
0.0
 11
-48.998296459187259
 21
-1030.4613906359191
 31
0.0
  0
LINE
  5
221
100
AcDbEntity
  8
LAYER064
  6
CONTINUOUS
 62
               9
100
AcDbLine
 10
-446.99829645918726
 20
-310.46139063591909
 30
0.0
 11
-48.998296459187259
 21
-310.46139063591909
 31
0.0
  0
LINE
  5
222
100
AcDbEntity
  8
LAYER064
  6
CONTINUOUS
 62
               9
100
AcDbLine
 10
-60.998296459187259
 20
-1030.4613906359191
 30
0.0
 11
-60.998296459187259
 21
-310.46139063591909
 31
0.0
  0
LINE
  5
223
100
AcDbEntity
  8
LAYER064
  6
CONTINUOUS
 62
               9
100
AcDbLine
 10
-60.998296459187259
 20
-1030.4613906359191
 30
0.0
 11
-64.134150357216868
 21
-1000.6257337748709
 31
0.0
  0
LINE
  5
224
100
AcDbEntity
  8
LAYER064
  6
CONTINUOUS
 62
               9
100
AcDbLine
 10
-60.998296459187259
 20
-1030.4613906359191
 30
0.0
 11
-57.862442561157657
 21
-1000.6257337748709
 31
0.0
  0
LINE
  5
225
100
AcDbEntity
  8
LAYER064
  6
CONTINUOUS
 62
               9
100
AcDbLine
 10
-60.998296459187259
 20
-310.46139063591909
 30
0.0
 11
-57.862445200210821
 21
-340.29704777434284
 31
0.0
  0
LINE
  5
226
100
AcDbEntity
  8
LAYER064
  6
CONTINUOUS
 62
               9
100
AcDbLine
 10
-60.998296459187259
 20
-310.46139063591909
 30
0.0
 11
-64.134147718163703
 21
-340.29704777434284
 31
0.0
  0
TEXT
  5
227
100
AcDbEntity
  8
LAYER064
 62
               7
100
AcDbText
 10
-72.998296459187259
 20
-733.46139063591909
 30
0.0
 40
42.0
  1
720
 50
89.999999999999801
 72
               5
 11
-72.998296459187259
 21
-607.46139063591909
 31
0.0
100
AcDbText
  0
ENDBLK
  5
228
100
AcDbEntity
  8
0
100
AcDbBlockEnd
  0
BLOCK
  5
229
100
AcDbEntity
  8
0
100
AcDbBlockBegin
  2
GROUP_21
 70
               0
 10
0.0
 20
0.0
 30
0.0
  3
GROUP_21
  1

  0
LINE
  5
22A
100
AcDbEntity
  8
LAYER064
  6
CONTINUOUS
 62
               9
100
AcDbLine
 10
517.00170354081274
 20
-438.96139063591914
 30
0.0
 11
397.00170354081274
 21
-438.96139063591914
 31
0.0
  0
LINE
  5
22B
100
AcDbEntity
  8
LAYER064
  6
CONTINUOUS
 62
               9
100
AcDbLine
 10
639.00170354081274
 20
-1030.4613906359191
 30
0.0
 11
397.00170354081274
 21
-1030.4613906359191
 31
0.0
  0
LINE
  5
22C
100
AcDbEntity
  8
LAYER064
  6
CONTINUOUS
 62
               9
100
AcDbLine
 10
537.00170354081274
 20
-322.46139063591914
 30
0.0
 11
397.00170354081274
 21
-322.46139063591914
 31
0.0
  0
LINE
  5
22D
100
AcDbEntity
  8
LAYER064
  6
CONTINUOUS
 62
               9
100
AcDbLine
 10
409.00170354081274
 20
-438.96139063591914
 30
0.0
 11
409.00170354081274
 21
-322.46139063591914
 31
0.0
  0
LINE
  5
22E
100
AcDbEntity
  8
LAYER064
  6
CONTINUOUS
 62
               9
100
AcDbLine
 10
409.00170354081274
 20
-1030.4613906359191
 30
0.0
 11
409.00170354081274
 21
-438.96139063591914
 31
0.0
  0
LINE
  5
22F
100
AcDbEntity
  8
LAYER064
  6
CONTINUOUS
 62
               9
100
AcDbLine
 10
409.00170354081274
 20
-1030.4613906359191
 30
0.0
 11
405.86584964278313
 21
-1000.6257337748709
 31
0.0
  0
LINE
  5
230
100
AcDbEntity
  8
LAYER064
  6
CONTINUOUS
 62
               9
100
AcDbLine
 10
409.00170354081274
 20
-1030.4613906359191
 30
0.0
 11
412.13755743884235
 21
-1000.6257337748709
 31
0.0
  0
LINE
  5
231
100
AcDbEntity
  8
LAYER064
  6
CONTINUOUS
 62
               9
100
AcDbLine
 10
409.00170354081274
 20
-438.96139063591914
 30
0.0
 11
412.1375547997892
 21
-468.7970477743429
 31
0.0
  0
LINE
  5
232
100
AcDbEntity
  8
LAYER064
  6
CONTINUOUS
 62
               9
100
AcDbLine
 10
409.00170354081274
 20
-438.96139063591914
 30
0.0
 11
405.86585228183628
 21
-468.7970477743429
 31
0.0
  0
LINE
  5
233
100
AcDbEntity
  8
LAYER064
  6
CONTINUOUS
 62
               9
100
AcDbLine
 10
409.00170354081274
 20
-52.461390635919145
 30
0.0
 11
409.00170354081274
 21
-322.46139063591914
 31
0.0
  0
LINE
  5
234
100
AcDbEntity
  8
LAYER064
  6
CONTINUOUS
 62
               9
100
AcDbLine
 10
409.00170354081274
 20
-322.46139063591914
 30
0.0
 11
405.86585228183628
 21
-292.62573349749539
 31
0.0
  0
LINE
  5
235
100
AcDbEntity
  8
LAYER064
  6
CONTINUOUS
 62
               9
100
AcDbLine
 10
409.00170354081274
 20
-322.46139063591914
 30
0.0
 11
412.1375547997892
 21
-292.62573349749539
 31
0.0
  0
TEXT
  5
236
100
AcDbEntity
  8
LAYER064
 62
               7
100
AcDbText
 10
397.00170354081274
 20
-839.71139063591909
 30
0.0
 40
42.0
  1
591.5
 50
89.999999999999801
 72
               5
 11
397.00170354081274
 21
-629.71139063591909
 31
0.0
100
AcDbText
  0
TEXT
  5
237
100
AcDbEntity
  8
LAYER064
 62
               7
100
AcDbText
 10
397.00170354081274
 20
-274.46139063591914
 30
0.0
 40
42.0
  1
116.5
 50
89.999999999999801
 72
               5
 11
397.00170354081274
 21
-64.461390635919145
 31
0.0
100
AcDbText
  0
ENDBLK
  5
238
100
AcDbEntity
  8
0
100
AcDbBlockEnd
  0
BLOCK
  5
239
100
AcDbEntity
  8
0
100
AcDbBlockBegin
  2
GROUP_22
 70
               0
 10
0.0
 20
0.0
 30
0.0
  3
GROUP_22
  1

  0
LINE
  5
23A
100
AcDbEntity
  8
LAYER064
  6
CONTINUOUS
 62
               9
100
AcDbLine
 10
-1538.9982964591873
 20
-962.46139063591909
 30
0.0
 11
-1538.9982964591873
 21
-1258.4613906359191
 31
0.0
  0
LINE
  5
23B
100
AcDbEntity
  8
LAYER064
  6
CONTINUOUS
 62
               9
100
AcDbLine
 10
-578.99829645918726
 20
-962.46139063591909
 30
0.0
 11
-578.99829645918726
 21
-1258.4613906359191
 31
0.0
  0
LINE
  5
23C
100
AcDbEntity
  8
LAYER064
  6
CONTINUOUS
 62
               9
100
AcDbLine
 10
-1538.9982964591873
 20
-1246.4613906359191
 30
0.0
 11
-578.99829645918726
 21
-1246.4613906359191
 31
0.0
  0
LINE
  5
23D
100
AcDbEntity
  8
LAYER064
  6
CONTINUOUS
 62
               9
100
AcDbLine
 10
-1538.9982964591873
 20
-1246.4613906359191
 30
0.0
 11
-1509.1626395981391
 21
-1243.3255367378895
 31
0.0
  0
LINE
  5
23E
100
AcDbEntity
  8
LAYER064
  6
CONTINUOUS
 62
               9
100
AcDbLine
 10
-1538.9982964591873
 20
-1246.4613906359191
 30
0.0
 11
-1509.1626395981391
 21
-1249.5972445339487
 31
0.0
  0
LINE
  5
23F
100
AcDbEntity
  8
LAYER064
  6
CONTINUOUS
 62
               9
100
AcDbLine
 10
-578.99829645918726
 20
-1246.4613906359191
 30
0.0
 11
-608.83395359761096
 21
-1249.5972418948954
 31
0.0
  0
LINE
  5
240
100
AcDbEntity
  8
LAYER064
  6
CONTINUOUS
 62
               9
100
AcDbLine
 10
-578.99829645918726
 20
-1246.4613906359191
 30
0.0
 11
-608.83395359761096
 21
-1243.3255393769427
 31
0.0
  0
TEXT
  5
241
100
AcDbEntity
  8
LAYER064
 62
               7
100
AcDbText
 10
-1121.9982964591873
 20
-1234.4613906359191
 30
0.0
 40
42.0
  1
960
 72
               5
 11
-995.99829645918726
 21
-1234.4613906359191
 31
0.0
100
AcDbText
  0
ENDBLK
  5
242
100
AcDbEntity
  8
0
100
AcDbBlockEnd
  0
BLOCK
  5
243
100
AcDbEntity
  8
0
100
AcDbBlockBegin
  2
GROUP_23
 70
               0
 10
0.0
 20
0.0
 30
0.0
  3
GROUP_23
  1

  0
LINE
  5
244
100
AcDbEntity
  8
LAYER064
  6
CONTINUOUS
 62
               9
100
AcDbLine
 10
-1558.9982964591873
 20
-1042.4613906359191
 30
0.0
 11
-1558.9982964591873
 21
-1162.4613906359191
 31
0.0
  0
LINE
  5
245
100
AcDbEntity
  8
LAYER064
  6
CONTINUOUS
 62
               9
100
AcDbLine
 10
-1618.9982964591873
 20
-1042.4613906359191
 30
0.0
 11
-1618.9982964591873
 21
-1162.4613906359191
 31
0.0
  0
LINE
  5
246
100
AcDbEntity
  8
LAYER064
  6
CONTINUOUS
 62
               9
100
AcDbLine
 10
-1558.9982964591873
 20
-1150.4613906359191
 30
0.0
 11
-1618.9982964591873
 21
-1150.4613906359191
 31
0.0
  0
LINE
  5
247
100
AcDbEntity
  8
LAYER064
  6
CONTINUOUS
 62
               9
100
AcDbLine
 10
-1804.9982964591873
 20
-1150.4613906359191
 30
0.0
 11
-1618.9982964591873
 21
-1150.4613906359191
 31
0.0
  0
LINE
  5
248
100
AcDbEntity
  8
LAYER064
  6
CONTINUOUS
 62
               9
100
AcDbLine
 10
-1618.9982964591873
 20
-1150.4613906359191
 30
0.0
 11
-1648.8339535976111
 21
-1153.5972418948954
 31
0.0
  0
LINE
  5
249
100
AcDbEntity
  8
LAYER064
  6
CONTINUOUS
 62
               9
100
AcDbLine
 10
-1618.9982964591873
 20
-1150.4613906359191
 30
0.0
 11
-1648.8339535976111
 21
-1147.3255393769427
 31
0.0
  0
LINE
  5
24A
100
AcDbEntity
  8
LAYER064
  6
CONTINUOUS
 62
               9
100
AcDbLine
 10
-1498.9982964591873
 20
-1150.4613906359191
 30
0.0
 11
-1558.9982964591873
 21
-1150.4613906359191
 31
0.0
  0
LINE
  5
24B
100
AcDbEntity
  8
LAYER064
  6
CONTINUOUS
 62
               9
100
AcDbLine
 10
-1558.9982964591873
 20
-1150.4613906359191
 30
0.0
 11
-1529.1626393207634
 21
-1147.3255393769427
 31
0.0
  0
LINE
  5
24C
100
AcDbEntity
  8
LAYER064
  6
CONTINUOUS
 62
               9
100
AcDbLine
 10
-1558.9982964591873
 20
-1150.4613906359191
 30
0.0
 11
-1529.1626393207634
 21
-1153.5972418948954
 31
0.0
  0
TEXT
  5
24D
100
AcDbEntity
  8
LAYER064
 62
               7
100
AcDbText
 10
-1792.9982964591873
 20
-1138.4613906359191
 30
0.0
 40
42.0
  1
φ60
 72
               5
 11
-1666.9982964591873
 21
-1138.4613906359191
 31
0.0
100
AcDbText
  0
ENDBLK
  5
24E
100
AcDbEntity
  8
0
100
AcDbBlockEnd
  0
BLOCK
  5
24F
100
AcDbEntity
  8
0
100
AcDbBlockBegin
  2
GROUP_24
 70
               0
 10
0.0
 20
0.0
 30
0.0
  3
GROUP_24
  1

  0
LINE
  5
250
100
AcDbEntity
  8
LAYER064
  6
CONTINUOUS
 62
               9
100
AcDbLine
 10
-478.99829645918726
 20
-962.46139063591932
 30
0.0
 11
-478.99829645918726
 21
-1162.4613906359191
 31
0.0
  0
LINE
  5
251
100
AcDbEntity
  8
LAYER064
  6
CONTINUOUS
 62
               9
100
AcDbLine
 10
-578.99829645918726
 20
-962.46139063591909
 30
0.0
 11
-578.99829645918726
 21
-1162.4613906359191
 31
0.0
  0
LINE
  5
252
100
AcDbEntity
  8
LAYER064
  6
CONTINUOUS
 62
               9
100
AcDbLine
 10
-578.99829645918726
 20
-1150.4613906359191
 30
0.0
 11
-478.99829645918726
 21
-1150.4613906359191
 31
0.0
  0
LINE
  5
253
100
AcDbEntity
  8
LAYER064
  6
CONTINUOUS
 62
               9
100
AcDbLine
 10
-806.99829645918726
 20
-1150.4613906359191
 30
0.0
 11
-578.99829645918726
 21
-1150.4613906359191
 31
0.0
  0
LINE
  5
254
100
AcDbEntity
  8
LAYER064
  6
CONTINUOUS
 62
               9
100
AcDbLine
 10
-578.99829645918726
 20
-1150.4613906359191
 30
0.0
 11
-608.83395359761096
 21
-1153.5972418948954
 31
0.0
  0
LINE
  5
255
100
AcDbEntity
  8
LAYER064
  6
CONTINUOUS
 62
               9
100
AcDbLine
 10
-578.99829645918726
 20
-1150.4613906359191
 30
0.0
 11
-608.83395359761096
 21
-1147.3255393769427
 31
0.0
  0
LINE
  5
256
100
AcDbEntity
  8
LAYER064
  6
CONTINUOUS
 62
               9
100
AcDbLine
 10
-418.99829645918726
 20
-1150.4613906359191
 30
0.0
 11
-478.99829645918726
 21
-1150.4613906359191
 31
0.0
  0
LINE
  5
257
100
AcDbEntity
  8
LAYER064
  6
CONTINUOUS
 62
               9
100
AcDbLine
 10
-478.99829645918726
 20
-1150.4613906359191
 30
0.0
 11
-449.1626393207635
 21
-1147.3255393769427
 31
0.0
  0
LINE
  5
258
100
AcDbEntity
  8
LAYER064
  6
CONTINUOUS
 62
               9
100
AcDbLine
 10
-478.99829645918726
 20
-1150.4613906359191
 30
0.0
 11
-449.1626393207635
 21
-1153.5972418948954
 31
0.0
  0
TEXT
  5
259
100
AcDbEntity
  8
LAYER064
 62
               7
100
AcDbText
 10
-794.99829645918726
 20
-1138.4613906359191
 30
0.0
 40
42.0
  1
□100
 72
               5
 11
-626.99829645918726
 21
-1138.4613906359191
 31
0.0
100
AcDbText
  0
ENDBLK
  5
25A
100
AcDbEntity
  8
0
100
AcDbBlockEnd
  0
BLOCK
  5
25B
100
AcDbEntity
  8
0
100
AcDbBlockBegin
  2
GROUP_25
 70
               0
 10
0.0
 20
0.0
 30
0.0
  3
GROUP_25
  1

  0
LINE
  5
25C
100
AcDbEntity
  8
LAYER064
  6
CONTINUOUS
 62
               9
100
AcDbLine
 10
-1588.9982964591873
 20
-1042.4613906359191
 30
0.0
 11
-1588.9982964591873
 21
-1354.4613906359191
 31
0.0
  0
LINE
  5
25D
100
AcDbEntity
  8
LAYER064
  6
CONTINUOUS
 62
               9
100
AcDbLine
 10
-528.99829645918726
 20
-1042.4613906359191
 30
0.0
 11
-528.99829645918726
 21
-1354.4613906359191
 31
0.0
  0
LINE
  5
25E
100
AcDbEntity
  8
LAYER064
  6
CONTINUOUS
 62
               9
100
AcDbLine
 10
-1588.9982964591873
 20
-1342.4613906359191
 30
0.0
 11
-528.99829645918726
 21
-1342.4613906359191
 31
0.0
  0
LINE
  5
25F
100
AcDbEntity
  8
LAYER064
  6
CONTINUOUS
 62
               9
100
AcDbLine
 10
-1588.9982964591873
 20
-1342.4613906359191
 30
0.0
 11
-1559.1626395981391
 21
-1339.3255367378895
 31
0.0
  0
LINE
  5
260
100
AcDbEntity
  8
LAYER064
  6
CONTINUOUS
 62
               9
100
AcDbLine
 10
-1588.9982964591873
 20
-1342.4613906359191
 30
0.0
 11
-1559.1626395981391
 21
-1345.5972445339487
 31
0.0
  0
LINE
  5
261
100
AcDbEntity
  8
LAYER064
  6
CONTINUOUS
 62
               9
100
AcDbLine
 10
-528.99829645918726
 20
-1342.4613906359191
 30
0.0
 11
-558.83395359761096
 21
-1345.5972418948954
 31
0.0
  0
LINE
  5
262
100
AcDbEntity
  8
LAYER064
  6
CONTINUOUS
 62
               9
100
AcDbLine
 10
-528.99829645918726
 20
-1342.4613906359191
 30
0.0
 11
-558.83395359761096
 21
-1339.3255393769427
 31
0.0
  0
TEXT
  5
263
100
AcDbEntity
  8
LAYER064
 62
               7
100
AcDbText
 10
-1142.9982964591873
 20
-1330.4613906359191
 30
0.0
 40
42.0
  1
1060
 72
               5
 11
-974.99829645918726
 21
-1330.4613906359191
 31
0.0
100
AcDbText
  0
ENDBLK
  5
264
100
AcDbEntity
  8
0
100
AcDbBlockEnd
  0
BLOCK
  5
265
100
AcDbEntity
  8
0
100
AcDbBlockBegin
  2
GROUP_26
 70
               0
 10
0.0
 20
0.0
 30
0.0
  3
GROUP_26
  1

  0
LINE
  5
266
100
AcDbEntity
  8
LAYER064
  6
CONTINUOUS
 62
               9
100
AcDbLine
 10
-486.99829645918726
 20
-1030.4613906359191
 30
0.0
 11
-168.99829645918726
 21
-1030.4613906359191
 31
0.0
  0
LINE
  5
267
100
AcDbEntity
  8
LAYER064
  6
CONTINUOUS
 62
               9
100
AcDbLine
 10
-466.99829645918726
 20
-950.46139063591932
 30
0.0
 11
-168.99829645918726
 21
-950.46139063591932
 31
0.0
  0
LINE
  5
268
100
AcDbEntity
  8
LAYER064
  6
CONTINUOUS
 62
               9
100
AcDbLine
 10
-180.99829645918726
 20
-1030.4613906359191
 30
0.0
 11
-180.99829645918726
 21
-950.46139063591932
 31
0.0
  0
LINE
  5
269
100
AcDbEntity
  8
LAYER064
  6
CONTINUOUS
 62
               9
100
AcDbLine
 10
-414.99829645918726
 20
-443.4613906359192
 30
0.0
 11
-168.99829645918726
 21
-443.4613906359192
 31
0.0
  0
LINE
  5
26A
100
AcDbEntity
  8
LAYER064
  6
CONTINUOUS
 62
               9
100
AcDbLine
 10
-180.99829645918726
 20
-1174.4613906359191
 30
0.0
 11
-180.99829645918726
 21
-1030.4613906359191
 31
0.0
  0
LINE
  5
26B
100
AcDbEntity
  8
LAYER064
  6
CONTINUOUS
 62
               9
100
AcDbLine
 10
-180.99829645918726
 20
-1030.4613906359191
 30
0.0
 11
-177.86244520021083
 21
-1060.2970477743429
 31
0.0
  0
LINE
  5
26C
100
AcDbEntity
  8
LAYER064
  6
CONTINUOUS
 62
               9
100
AcDbLine
 10
-180.99829645918726
 20
-1030.4613906359191
 30
0.0
 11
-184.13414771816369
 21
-1060.2970477743429
 31
0.0
  0
LINE
  5
26D
100
AcDbEntity
  8
LAYER064
  6
CONTINUOUS
 62
               9
100
AcDbLine
 10
-180.99829645918726
 20
-950.46139063591932
 30
0.0
 11
-180.99829645918726
 21
-443.4613906359192
 31
0.0
  0
LINE
  5
26E
100
AcDbEntity
  8
LAYER064
  6
CONTINUOUS
 62
               9
100
AcDbLine
 10
-180.99829645918726
 20
-950.46139063591932
 30
0.0
 11
-184.13415035721687
 21
-920.62573377487115
 31
0.0
  0
LINE
  5
26F
100
AcDbEntity
  8
LAYER064
  6
CONTINUOUS
 62
               9
100
AcDbLine
 10
-180.99829645918726
 20
-950.46139063591932
 30
0.0
 11
-177.86244256115765
 21
-920.62573377487115
 31
0.0
  0
LINE
  5
270
100
AcDbEntity
  8
LAYER064
  6
CONTINUOUS
 62
               9
100
AcDbLine
 10
-180.99829645918726
 20
-443.4613906359192
 30
0.0
 11
-177.86244520021083
 21
-473.29704777434296
 31
0.0
  0
LINE
  5
271
100
AcDbEntity
  8
LAYER064
  6
CONTINUOUS
 62
               9
100
AcDbLine
 10
-180.99829645918726
 20
-443.4613906359192
 30
0.0
 11
-184.13414771816369
 21
-473.29704777434296
 31
0.0
  0
TEXT
  5
272
100
AcDbEntity
  8
LAYER064
 62
               7
100
AcDbText
 10
-192.99829645918726
 20
-1162.4613906359191
 30
0.0
 40
42.0
  1
80
 50
89.999999999999801
 72
               5
 11
-192.99829645918726
 21
-1078.4613906359191
 31
0.0
100
AcDbText
  0
TEXT
  5
273
100
AcDbEntity
  8
LAYER064
 62
               7
100
AcDbText
 10
-192.99829645918726
 20
-759.96139063591932
 30
0.0
 40
42.0
  1
507
 50
89.999999999999801
 72
               5
 11
-192.99829645918726
 21
-633.96139063591932
 31
0.0
100
AcDbText
  0
ENDBLK
  5
274
100
AcDbEntity
  8
0
100
AcDbBlockEnd
  0
BLOCK
  5
275
100
AcDbEntity
  8
0
100
AcDbBlockBegin
  2
GROUP_27
 70
               0
 10
0.0
 20
0.0
 30
0.0
  3
GROUP_27
  1

  0
LINE
  5
276
100
AcDbEntity
  8
LAYER064
  6
CONTINUOUS
 62
               9
100
AcDbLine
 10
-479.49829645918726
 20
-930.46139063591932
 30
0.0
 11
-288.99829645918726
 21
-930.46139063591932
 31
0.0
  0
LINE
  5
277
100
AcDbEntity
  8
LAYER064
  6
CONTINUOUS
 62
               9
100
AcDbLine
 10
-466.99829645918726
 20
-950.46139063591932
 30
0.0
 11
-288.99829645918726
 21
-950.46139063591932
 31
0.0
  0
LINE
  5
278
100
AcDbEntity
  8
LAYER064
  6
CONTINUOUS
 62
               9
100
AcDbLine
 10
-300.99829645918726
 20
-950.46139063591932
 30
0.0
 11
-300.99829645918726
 21
-930.46139063591932
 31
0.0
  0
LINE
  5
279
100
AcDbEntity
  8
LAYER064
  6
CONTINUOUS
 62
               9
100
AcDbLine
 10
-479.49829645918726
 20
-855.46139063591932
 30
0.0
 11
-288.99829645918726
 21
-855.46139063591932
 31
0.0
  0
LINE
  5
27A
100
AcDbEntity
  8
LAYER064
  6
CONTINUOUS
 62
               9
100
AcDbLine
 10
-479.49829645918726
 20
-548.4613906359192
 30
0.0
 11
-288.99829645918726
 21
-548.4613906359192
 31
0.0
  0
LINE
  5
27B
100
AcDbEntity
  8
LAYER064
  6
CONTINUOUS
 62
               9
100
AcDbLine
 10
-479.49829645918726
 20
-473.4613906359192
 30
0.0
 11
-288.99829645918726
 21
-473.4613906359192
 31
0.0
  0
LINE
  5
27C
100
AcDbEntity
  8
LAYER064
  6
CONTINUOUS
 62
               9
100
AcDbLine
 10
-414.99829645918726
 20
-443.4613906359192
 30
0.0
 11
-288.99829645918726
 21
-443.4613906359192
 31
0.0
  0
LINE
  5
27D
100
AcDbEntity
  8
LAYER064
  6
CONTINUOUS
 62
               9
100
AcDbLine
 10
-300.99829645918726
 20
-473.4613906359192
 30
0.0
 11
-300.99829645918726
 21
-443.4613906359192
 31
0.0
  0
LINE
  5
27E
100
AcDbEntity
  8
LAYER064
  6
CONTINUOUS
 62
               9
100
AcDbLine
 10
-300.99829645918726
 20
-930.46139063591932
 30
0.0
 11
-300.99829645918726
 21
-855.46139063591932
 31
0.0
  0
INSERT
  5
27F
100
AcDbEntity
  8
LAYER064
  6
CONTINUOUS
 62
               9
100
AcDbBlockReference
  2
_DOT
 10
-300.99829645918726
 20
-930.46139063591932
 30
0.0
 41
3.5999999999999996
 42
3.5999999999999996
 43
3.5999999999999996
  0
LINE
  5
280
100
AcDbEntity
  8
LAYER064
  6
CONTINUOUS
 62
               9
100
AcDbLine
 10
-300.99829645918726
 20
-855.46139063591932
 30
0.0
 11
-300.99829645918726
 21
-548.4613906359192
 31
0.0
  0
LINE
  5
281
100
AcDbEntity
  8
LAYER064
  6
CONTINUOUS
 62
               9
100
AcDbLine
 10
-300.99829645918726
 20
-855.46139063591932
 30
0.0
 11
-304.13415035721687
 21
-825.62573377487115
 31
0.0
  0
LINE
  5
282
100
AcDbEntity
  8
LAYER064
  6
CONTINUOUS
 62
               9
100
AcDbLine
 10
-300.99829645918726
 20
-855.46139063591932
 30
0.0
 11
-297.86244256115765
 21
-825.62573377487115
 31
0.0
  0
LINE
  5
283
100
AcDbEntity
  8
LAYER064
  6
CONTINUOUS
 62
               9
100
AcDbLine
 10
-300.99829645918726
 20
-548.4613906359192
 30
0.0
 11
-297.8624452002108
 21
-578.2970477743429
 31
0.0
  0
LINE
  5
284
100
AcDbEntity
  8
LAYER064
  6
CONTINUOUS
 62
               9
100
AcDbLine
 10
-300.99829645918726
 20
-548.4613906359192
 30
0.0
 11
-304.13414771816372
 21
-578.2970477743429
 31
0.0
  0
LINE
  5
285
100
AcDbEntity
  8
LAYER064
  6
CONTINUOUS
 62
               9
100
AcDbLine
 10
-300.99829645918726
 20
-548.4613906359192
 30
0.0
 11
-300.99829645918726
 21
-473.4613906359192
 31
0.0
  0
INSERT
  5
286
100
AcDbEntity
  8
LAYER064
  6
CONTINUOUS
 62
               9
100
AcDbBlockReference
  2
_DOT
 10
-300.99829645918726
 20
-473.4613906359192
 30
0.0
 41
3.5999999999999996
 42
3.5999999999999996
 43
3.5999999999999996
  0
LINE
  5
287
100
AcDbEntity
  8
LAYER064
  6
CONTINUOUS
 62
               9
100
AcDbLine
 10
-300.99829645918726
 20
-299.4613906359192
 30
0.0
 11
-300.99829645918726
 21
-443.4613906359192
 31
0.0
  0
LINE
  5
288
100
AcDbEntity
  8
LAYER064
  6
CONTINUOUS
 62
               9
100
AcDbLine
 10
-300.99829645918726
 20
-443.4613906359192
 30
0.0
 11
-304.13414771816372
 21
-413.62573349749545
 31
0.0
  0
LINE
  5
289
100
AcDbEntity
  8
LAYER064
  6
CONTINUOUS
 62
               9
100
AcDbLine
 10
-300.99829645918726
 20
-443.4613906359192
 30
0.0
 11
-297.8624452002108
 21
-413.62573349749545
 31
0.0
  0
LINE
  5
28A
100
AcDbEntity
  8
LAYER064
  6
CONTINUOUS
 62
               9
100
AcDbLine
 10
-300.99829645918726
 20
-1151.6005535822337
 30
0.0
 11
-300.99829645918726
 21
-950.46139063591932
 31
0.0
  0
LINE
  5
28B
100
AcDbEntity
  8
LAYER064
  6
CONTINUOUS
 62
               9
100
AcDbLine
 10
-300.99829645918726
 20
-950.46139063591932
 30
0.0
 11
-297.8624452002108
 21
-980.29704777434301
 31
0.0
  0
LINE
  5
28C
100
AcDbEntity
  8
LAYER064
  6
CONTINUOUS
 62
               9
100
AcDbLine
 10
-300.99829645918726
 20
-950.46139063591932
 30
0.0
 11
-304.13414771816372
 21
-980.29704777434301
 31
0.0
  0
TEXT
  5
28D
100
AcDbEntity
  8
LAYER064
 62
               7
100
AcDbText
 10
-312.99829645918726
 20
-1139.6005535822337
 30
0.0
 40
42.0
  1
20
 50
89.999999999999801
 72
               5
 11
-312.99829645918726
 21
-1055.6005535822337
 31
0.0
100
AcDbText
  0
TEXT
  5
28E
100
AcDbEntity
  8
LAYER064
 62
               7
100
AcDbText
 10
-246.99829645918726
 20
-934.96139063591932
 30
0.0
 40
42.0
  1
75
 50
89.999999999999801
 72
               5
 11
-246.99829645918726
 21
-850.96139063591932
 31
0.0
100
AcDbText
  0
TEXT
  5
28F
100
AcDbEntity
  8
LAYER064
 62
               7
100
AcDbText
 10
-312.99829645918726
 20
-764.96139063591932
 30
0.0
 40
42.0
  1
307
 50
89.999999999999801
 72
               5
 11
-312.99829645918726
 21
-638.96139063591932
 31
0.0
100
AcDbText
  0
TEXT
  5
290
100
AcDbEntity
  8
LAYER064
 62
               7
100
AcDbText
 10
-246.99829645918726
 20
-552.9613906359192
 30
0.0
 40
42.0
  1
75
 50
89.999999999999801
 72
               5
 11
-246.99829645918726
 21
-468.9613906359192
 31
0.0
100
AcDbText
  0
TEXT
  5
291
100
AcDbEntity
  8
LAYER064
 62
               7
100
AcDbText
 10
-312.99829645918726
 20
-395.4613906359192
 30
0.0
 40
42.0
  1
30
 50
89.999999999999801
 72
               5
 11
-312.99829645918726
 21
-311.4613906359192
 31
0.0
100
AcDbText
  0
ENDBLK
  5
292
100
AcDbEntity
  8
0
100
AcDbBlockEnd
  0
BLOCK
  5
293
100
AcDbEntity
  8
0
100
AcDbBlockBegin
  2
_ORIGIN
 70
               0
 10
0.0
 20
0.0
 30
0.0
  3
_ORIGIN
  1

  0
CIRCLE
  5
294
100
AcDbEntity
  8
LAYER064
  6
CONTINUOUS
 62
               9
100
AcDbCircle
 10
0.0
 20
0.0
 30
0.0
 40
0.5
  0
ENDBLK
  5
295
100
AcDbEntity
  8
0
100
AcDbBlockEnd
  0
BLOCK
  5
296
100
AcDbEntity
  8
0
100
AcDbBlockBegin
  2
_DOT
 70
               0
 10
0.0
 20
0.0
 30
0.0
  3
_DOT
  1

  0
HATCH
  5
297
100
AcDbEntity
  8
LAYER064
  6
CONTINUOUS
 62
               9
100
AcDbHatch
 10
0.0
 20
0.0
 30
0.0
210
0.0
220
0.0
230
1.0
  2
SOLID
 70
               1
 71
               1
 91
        1
 92
        1
 93
        1
 72
               2
 10
0.0
 20
0.0
 40
0.5
 50
0.0
 51
359.9999999999992
 73
               1
 97
        0
 75
               0
 76
               1
 98
        0
  0
ENDBLK
  5
298
100
AcDbEntity
  8
0
100
AcDbBlockEnd
  0
BLOCK
  5
299
100
AcDbEntity
  8
0
100
AcDbBlockBegin
  2
GROUP_28
 70
               0
 10
0.0
 20
0.0
 30
0.0
  3
GROUP_28
  1

  0
LINE
  5
29A
100
AcDbEntity
  8
LAYER064
  6
CONTINUOUS
 62
               9
100
AcDbLine
 10
731.00170354081274
 20
-962.46139063591932
 30
0.0
 11
731.00170354081274
 21
-1162.4613906359191
 31
0.0
  0
LINE
  5
29B
100
AcDbEntity
  8
LAYER064
  6
CONTINUOUS
 62
               9
100
AcDbLine
 10
1491.0017035408127
 20
-962.46139063591932
 30
0.0
 11
1491.0017035408127
 21
-1162.4613906359191
 31
0.0
  0
LINE
  5
29C
100
AcDbEntity
  8
LAYER064
  6
CONTINUOUS
 62
               9
100
AcDbLine
 10
731.00170354081274
 20
-1150.4613906359191
 30
0.0
 11
1491.0017035408127
 21
-1150.4613906359191
 31
0.0
  0
LINE
  5
29D
100
AcDbEntity
  8
LAYER064
  6
CONTINUOUS
 62
               9
100
AcDbLine
 10
731.00170354081274
 20
-1150.4613906359191
 30
0.0
 11
760.83736040186091
 21
-1147.3255367378895
 31
0.0
  0
LINE
  5
29E
100
AcDbEntity
  8
LAYER064
  6
CONTINUOUS
 62
               9
100
AcDbLine
 10
731.00170354081274
 20
-1150.4613906359191
 30
0.0
 11
760.83736040186091
 21
-1153.5972445339487
 31
0.0
  0
LINE
  5
29F
100
AcDbEntity
  8
LAYER064
  6
CONTINUOUS
 62
               9
100
AcDbLine
 10
1491.0017035408127
 20
-1150.4613906359191
 30
0.0
 11
1461.1660464023889
 21
-1153.5972418948954
 31
0.0
  0
LINE
  5
2A0
100
AcDbEntity
  8
LAYER064
  6
CONTINUOUS
 62
               9
100
AcDbLine
 10
1491.0017035408127
 20
-1150.4613906359191
 30
0.0
 11
1461.1660464023889
 21
-1147.3255393769427
 31
0.0
  0
TEXT
  5
2A1
100
AcDbEntity
  8
LAYER064
 62
               7
100
AcDbText
 10
1048.0017035408127
 20
-1138.4613906359191
 30
0.0
 40
42.0
  1
760
 72
               5
 11
1174.0017035408127
 21
-1138.4613906359191
 31
0.0
100
AcDbText
  0
ENDBLK
  5
2A2
100
AcDbEntity
  8
0
100
AcDbBlockEnd
  0
BLOCK
  5
2A3
100
AcDbEntity
  8
0
100
AcDbBlockBegin
  2
GROUP_29
 70
               0
 10
0.0
 20
0.0
 30
0.0
  3
GROUP_29
  1

  0
LINE
  5
2A4
100
AcDbEntity
  8
LAYER064
  6
CONTINUOUS
 62
               9
100
AcDbLine
 10
681.00170354081274
 20
-1042.4613906359191
 30
0.0
 11
681.00170354081274
 21
-1258.4613906359191
 31
0.0
  0
LINE
  5
2A5
100
AcDbEntity
  8
LAYER064
  6
CONTINUOUS
 62
               9
100
AcDbLine
 10
1541.0017035408127
 20
-1042.4613906359191
 30
0.0
 11
1541.0017035408127
 21
-1258.4613906359191
 31
0.0
  0
LINE
  5
2A6
100
AcDbEntity
  8
LAYER064
  6
CONTINUOUS
 62
               9
100
AcDbLine
 10
681.00170354081274
 20
-1246.4613906359191
 30
0.0
 11
1541.0017035408127
 21
-1246.4613906359191
 31
0.0
  0
LINE
  5
2A7
100
AcDbEntity
  8
LAYER064
  6
CONTINUOUS
 62
               9
100
AcDbLine
 10
681.00170354081274
 20
-1246.4613906359191
 30
0.0
 11
710.83736040186091
 21
-1243.3255367378895
 31
0.0
  0
LINE
  5
2A8
100
AcDbEntity
  8
LAYER064
  6
CONTINUOUS
 62
               9
100
AcDbLine
 10
681.00170354081274
 20
-1246.4613906359191
 30
0.0
 11
710.83736040186091
 21
-1249.5972445339487
 31
0.0
  0
LINE
  5
2A9
100
AcDbEntity
  8
LAYER064
  6
CONTINUOUS
 62
               9
100
AcDbLine
 10
1541.0017035408127
 20
-1246.4613906359191
 30
0.0
 11
1511.1660464023889
 21
-1249.5972418948954
 31
0.0
  0
LINE
  5
2AA
100
AcDbEntity
  8
LAYER064
  6
CONTINUOUS
 62
               9
100
AcDbLine
 10
1541.0017035408127
 20
-1246.4613906359191
 30
0.0
 11
1511.1660464023889
 21
-1243.3255393769427
 31
0.0
  0
TEXT
  5
2AB
100
AcDbEntity
  8
LAYER064
 62
               7
100
AcDbText
 10
1048.0017035408127
 20
-1234.4613906359191
 30
0.0
 40
42.0
  1
860
 72
               5
 11
1174.0017035408127
 21
-1234.4613906359191
 31
0.0
100
AcDbText
  0
ENDBLK
  5
2AC
100
AcDbEntity
  8
0
100
AcDbBlockEnd
  0
BLOCK
  5
2AD
100
AcDbEntity
  8
0
100
AcDbBlockBegin
  2
GROUP_30
 70
               0
 10
0.0
 20
0.0
 30
0.0
  3
GROUP_30
  1

  0
TEXT
  5
2AE
100
AcDbEntity
  8
0
 62
               3
100
AcDbText
 10
861.86230636833045
 20
373.80722891566268
 30
0.0
 40
120.0
  1
Ｍ-1210
 41
0.8
  7
FdaStyle1
 72
               5
 11
1437.8623063683303
 21
373.80722891566268
 31
0.0
100
AcDbText
  0
LINE
  5
2AF
100
AcDbEntity
  8
0
  6
CONTINUOUS
 62
               3
100
AcDbLine
 10
849.86230636833045
 20
361.80722891566268
 30
0.0
 11
1449.8623063683303
 21
361.80722891566268
 31
0.0
  0
LINE
  5
2B0
100
AcDbEntity
  8
0
  6
CONTINUOUS
 62
               3
100
AcDbLine
 10
1449.8623063683303
 20
361.80722891566268
 30
0.0
 11
1449.8623063683303
 21
505.80722891566268
 31
0.0
  0
LINE
  5
2B1
100
AcDbEntity
  8
0
  6
CONTINUOUS
 62
               3
100
AcDbLine
 10
849.86230636833045
 20
505.80722891566268
 30
0.0
 11
1449.8623063683303
 21
505.80722891566268
 31
0.0
  0
LINE
  5
2B2
100
AcDbEntity
  8
0
  6
CONTINUOUS
 62
               3
100
AcDbLine
 10
849.86230636833045
 20
361.80722891566268
 30
0.0
 11
849.86230636833045
 21
505.80722891566268
 31
0.0
  0
ENDBLK
  5
2B3
100
AcDbEntity
  8
0
100
AcDbBlockEnd
  0
ENDSEC
  0
SECTION
  2
ENTITIES
  0
LINE
  5
2B4
100
AcDbEntity
  8
0
  6
CONTINUOUS
 62
               3
100
AcDbLine
 10
-1696.9982964591873
 20
-22.461390635919145
 30
0.0
 11
-420.99829645918726
 21
-22.461390635919145
 31
0.0
  0
LINE
  5
2B5
100
AcDbEntity
  8
0
  6
CONTINUOUS
 62
               3
100
AcDbLine
 10
-420.99829645918726
 20
1097.5386093640809
 30
0.0
 11
-1696.9982964591873
 21
1097.5386093640809
 31
0.0
  0
LINE
  5
2B6
100
AcDbEntity
  8
0
  6
CONTINUOUS
 62
               3
100
AcDbLine
 10
-1696.9982964591873
 20
1097.5386093640809
 30
0.0
 11
-1696.9982964591873
 21
-22.461390635919145
 31
0.0
  0
LINE
  5
2B7
100
AcDbEntity
  8
0
  6
CONTINUOUS
 62
               3
100
AcDbLine
 10
-420.99829645918726
 20
-22.461390635919145
 30
0.0
 11
-420.99829645918726
 21
1097.5386093640809
 31
0.0
  0
LINE
  5
2B8
100
AcDbEntity
  8
0
  6
CONTINUOUS
 62
               3
100
AcDbLine
 10
-446.99829645918726
 20
1071.5386093640809
 30
0.0
 11
-1670.9982964591873
 21
1071.5386093640809
 31
0.0
  0
LINE
  5
2B9
100
AcDbEntity
  8
0
  6
CONTINUOUS
 62
               3
100
AcDbLine
 10
-1670.9982964591873
 20
1071.5386093640809
 30
0.0
 11
-1670.9982964591873
 21
47.538609364080855
 31
0.0
  0
LINE
  5
2BA
100
AcDbEntity
  8
0
  6
CONTINUOUS
 62
               3
100
AcDbLine
 10
-446.99829645918726
 20
47.538609364080855
 30
0.0
 11
-446.99829645918726
 21
1071.5386093640809
 31
0.0
  0
LINE
  5
2BB
100
AcDbEntity
  8
0
  6
CONTINUOUS
 62
               3
100
AcDbLine
 10
-1670.9982964591873
 20
47.538609364080855
 30
0.0
 11
-446.99829645918726
 21
47.538609364080855
 31
0.0
  0
LINE
  5
2BC
100
AcDbEntity
  8
0
  6
CONTINUOUS
 62
               3
100
AcDbLine
 10
-1658.9982964591873
 20
59.538609364081026
 30
0.0
 11
-458.99829645918726
 21
59.538609364081026
 31
0.0
  0
LINE
  5
2BD
100
AcDbEntity
  8
0
  6
CONTINUOUS
 62
               3
100
AcDbLine
 10
-458.99829645918726
 20
1059.5386093640809
 30
0.0
 11
-1658.9982964591873
 21
1059.5386093640809
 31
0.0
  0
LINE
  5
2BE
100
AcDbEntity
  8
0
  6
CONTINUOUS
 62
               3
100
AcDbLine
 10
-1658.9982964591873
 20
1059.5386093640809
 30
0.0
 11
-1658.9982964591873
 21
59.538609364081026
 31
0.0
  0
LINE
  5
2BF
100
AcDbEntity
  8
0
  6
CONTINUOUS
 62
               3
100
AcDbLine
 10
-458.99829645918726
 20
59.538609364081026
 30
0.0
 11
-458.99829645918726
 21
1059.5386093640809
 31
0.0
  0
LINE
  5
2C0
100
AcDbEntity
  8
0
  6
CONTINUOUS
 62
               3
100
AcDbLine
 10
-420.99829645918726
 20
-322.46139063591914
 30
0.0
 11
-420.99829645918726
 21
-438.96139063591914
 31
0.0
  0
LINE
  5
2C1
100
AcDbEntity
  8
0
  6
CONTINUOUS
 62
               3
100
AcDbLine
 10
-1465.4982964591873
 20
-387.46139063591914
 30
0.0
 11
-652.49829645918726
 21
-387.46139063591914
 31
0.0
  0
LINE
  5
2C2
100
AcDbEntity
  8
0
  6
CONTINUOUS
 62
               3
100
AcDbLine
 10
-1516.9982964591873
 20
-438.96139063591914
 30
0.0
 11
-1465.4982964591873
 21
-387.46139063591914
 31
0.0
  0
LINE
  5
2C3
100
AcDbEntity
  8
0
  6
CONTINUOUS
 62
               3
100
AcDbLine
 10
-600.99829645918726
 20
-438.96139063591914
 30
0.0
 11
-652.49829645918726
 21
-387.46139063591914
 31
0.0
  0
LINE
  5
2C4
100
AcDbEntity
  8
0
  6
CONTINUOUS
 62
               3
100
AcDbLine
 10
-984.99829645918726
 20
-438.96139063591914
 30
0.0
 11
-420.99829645918726
 21
-438.96139063591914
 31
0.0
  0
LINE
  5
2C5
100
AcDbEntity
  8
0
  6
CONTINUOUS
 62
               3
100
AcDbLine
 10
-1696.9982964591873
 20
-322.46139063591914
 30
0.0
 11
-420.99829645918726
 21
-322.46139063591914
 31
0.0
  0
LINE
  5
2C6
100
AcDbEntity
  8
0
  6
CONTINUOUS
 62
               3
100
AcDbLine
 10
-1696.9982964591873
 20
-438.96139063591914
 30
0.0
 11
-1016.9982964591873
 21
-438.96139063591914
 31
0.0
  0
LINE
  5
2C7
100
AcDbEntity
  8
0
  6
CONTINUOUS
 62
               3
100
AcDbLine
 10
549.00170354081274
 20
-322.46139063591914
 30
0.0
 11
1649.0017035408127
 21
-322.46139063591914
 31
0.0
  0
LINE
  5
2C8
100
AcDbEntity
  8
0
  6
CONTINUOUS
 62
               3
100
AcDbLine
 10
529.00170354081274
 20
-438.96139063591914
 30
0.0
 11
1649.0017035408127
 21
-438.96139063591914
 31
0.0
  0
LINE
  5
2C9
100
AcDbEntity
  8
0
  6
CONTINUOUS
 62
               3
100
AcDbLine
 10
529.00170354081274
 20
-342.46139063591914
 30
0.0
 11
529.00170354081274
 21
-438.96139063591914
 31
0.0
  0
ARC
  5
2CA
100
AcDbEntity
  8
0
  6
CONTINUOUS
 62
               3
100
AcDbCircle
 10
549.00170354081274
 20
-342.46139063591914
 30
0.0
 40
20.0
100
AcDbArc
 50
89.999999999999801
 51
179.9999999999996
  0
LINE
  5
2CB
100
AcDbEntity
  8
0
  6
CONTINUOUS
 62
               3
100
AcDbLine
 10
1649.0017035408127
 20
-322.46139063591914
 30
0.0
 11
1649.0017035408127
 21
-438.96139063591914
 31
0.0
  0
LINE
  5
2CC
100
AcDbEntity
  8
0
  6
CONTINUOUS
 62
               3
100
AcDbLine
 10
-1696.9982964591873
 20
-322.46139063591914
 30
0.0
 11
-1696.9982964591873
 21
-438.96139063591914
 31
0.0
  0
LINE
  5
2CD
100
AcDbEntity
  8
0
  6
CONTINUOUS
 62
               3
100
AcDbLine
 10
-1658.9982964591873
 20
-310.46139063591909
 30
0.0
 11
-1658.9982964591873
 21
-315.46139063591909
 31
0.0
  0
LINE
  5
2CE
100
AcDbEntity
  8
0
  6
CONTINUOUS
 62
               3
100
AcDbLine
 10
-468.99829645918726
 20
-443.4613906359192
 30
0.0
 11
-588.99829645918726
 21
-443.4613906359192
 31
0.0
  0
LINE
  5
2CF
100
AcDbEntity
  8
0
  6
CONTINUOUS
 62
               3
100
AcDbLine
 10
-468.99829645918726
 20
-438.96139063591914
 30
0.0
 11
-468.99829645918726
 21
-443.4613906359192
 31
0.0
  0
LINE
  5
2D0
100
AcDbEntity
  8
0
  6
CONTINUOUS
 62
               3
100
AcDbLine
 10
-588.99829645918726
 20
-443.4613906359192
 30
0.0
 11
-588.99829645918726
 21
-438.96139063591914
 31
0.0
  0
LINE
  5
2D1
100
AcDbEntity
  8
0
  6
CONTINUOUS
 62
               3
100
AcDbLine
 10
-423.99829645918726
 20
-440.4613906359192
 30
0.0
 11
-423.99829645918726
 21
-438.9613906359192
 31
0.0
  0
ARC
  5
2D2
100
AcDbEntity
  8
0
  6
CONTINUOUS
 62
               3
100
AcDbCircle
 10
-426.99829645918726
 20
-440.4613906359192
 30
0.0
 40
3.0
100
AcDbArc
 50
269.99999999999937
 51
359.9999999999992
  0
LINE
  5
2D3
100
AcDbEntity
  8
0
  6
CONTINUOUS
 62
               3
100
AcDbLine
 10
-468.99829645918726
 20
-443.4613906359192
 30
0.0
 11
-426.99829645918726
 21
-443.4613906359192
 31
0.0
  0
LINE
  5
2D4
100
AcDbEntity
  8
0
  6
CONTINUOUS
 62
               3
100
AcDbLine
 10
-478.99829645918726
 20
-443.46139063591943
 30
0.0
 11
-478.99829645918726
 21
-950.46139063591932
 31
0.0
  0
LINE
  5
2D5
100
AcDbEntity
  8
0
  6
CONTINUOUS
 62
               3
100
AcDbLine
 10
-578.99829645918726
 20
-443.46139063591943
 30
0.0
 11
-578.99829645918726
 21
-950.46139063591909
 31
0.0
  0
LINE
  5
2D6
100
AcDbEntity
  8
0
  6
CONTINUOUS
 62
               3
100
AcDbLine
 10
-478.99829645918726
 20
-950.46139063591932
 30
0.0
 11
-578.99829645918726
 21
-950.46139063591909
 31
0.0
  0
LINE
  5
2D7
100
AcDbEntity
  8
0
  6
CONTINUOUS
 62
               3
100
AcDbLine
 10
-546.29829645918653
 20
-1001.4613906359191
 30
0.0
 11
-511.69829645918617
 21
-1001.4613906359191
 31
0.0
  0
LINE
  5
2D8
100
AcDbEntity
  8
0
  6
CONTINUOUS
 62
               3
100
AcDbLine
 10
-546.29829645918653
 20
-1001.4613906359191
 30
0.0
 11
-546.29829645918653
 21
-1011.844809882188
 31
0.0
  0
LINE
  5
2D9
100
AcDbEntity
  8
0
  6
CONTINUOUS
 62
               3
100
AcDbLine
 10
-537.63804242134211
 20
-1011.844809882188
 30
0.0
 11
-537.63804242134211
 21
-1001.4613906359191
 31
0.0
  0
LINE
  5
2DA
100
AcDbEntity
  8
0
  6
CONTINUOUS
 62
               3
100
AcDbLine
 10
-548.99829645918544
 20
-1013.4613906359191
 30
0.0
 11
-508.99829645918726
 21
-1013.4613906359191
 31
0.0
  0
LINE
  5
2DB
100
AcDbEntity
  8
0
  6
CONTINUOUS
 62
               3
100
AcDbLine
 10
-511.69829645918617
 20
-1001.4613906359191
 30
0.0
 11
-511.69829645918617
 21
-1011.844809882188
 31
0.0
  0
ARC
  5
2DC
100
AcDbEntity
  8
0
  6
CONTINUOUS
 62
               3
100
AcDbCircle
 10
-541.96816944026432
 20
-1006.8538230015683
 30
0.0
 40
6.6075676343505885
100
AcDbArc
 50
229.05544096051565
 51
310.94455903948312
  0
ARC
  5
2DD
100
AcDbEntity
  8
0
  6
CONTINUOUS
 62
               3
100
AcDbCircle
 10
-516.02842347810838
 20
-1006.8538230015683
 30
0.0
 40
6.6075676343505885
100
AcDbArc
 50
229.05544096051565
 51
310.94455903948312
  0
ARC
  5
2DE
100
AcDbEntity
  8
0
  6
CONTINUOUS
 62
               3
100
AcDbCircle
 10
-528.99829645918726
 20
-989.56572583674006
 30
0.0
 40
23.895664799178892
100
AcDbArc
 50
248.80389248660356
 51
291.19610751339525
  0
LINE
  5
2DF
100
AcDbEntity
  8
0
  6
CONTINUOUS
 62
               3
100
AcDbLine
 10
-498.99829645918726
 20
-1021.4613906359191
 30
0.0
 11
-508.99829645918726
 21
-1013.4613906359191
 31
0.0
  0
LINE
  5
2E0
100
AcDbEntity
  8
0
  6
CONTINUOUS
 62
               3
100
AcDbLine
 10
-520.35855049703059
 20
-1011.844809882188
 30
0.0
 11
-520.35855049703059
 21
-1001.4613906359191
 31
0.0
  0
LINE
  5
2E1
100
AcDbEntity
  8
0
  6
CONTINUOUS
 62
               3
100
AcDbLine
 10
-520.35855049703059
 20
-959.84480988218831
 30
0.0
 11
-520.35855049703059
 21
-950.46139063591932
 31
0.0
  0
LINE
  5
2E2
100
AcDbEntity
  8
0
  6
CONTINUOUS
 62
               3
100
AcDbLine
 10
-558.99829645918726
 20
-1021.4613906359191
 30
0.0
 11
-498.99829645918726
 21
-1021.4613906359191
 31
0.0
  0
LINE
  5
2E3
100
AcDbEntity
  8
0
  6
CONTINUOUS
 62
               3
100
AcDbLine
 10
-558.99829645918726
 20
-1021.4613906359191
 30
0.0
 11
-548.99829645918726
 21
-1013.4613906359191
 31
0.0
  0
LINE
  5
2E4
100
AcDbEntity
  8
0
  6
CONTINUOUS
 62
               3
100
AcDbLine
 10
-1538.9982964591873
 20
-473.4613906359192
 30
0.0
 11
-578.99829645918726
 21
-473.4613906359192
 31
0.0
  0
LINE
  5
2E5
100
AcDbEntity
  8
0
  6
CONTINUOUS
 62
               3
100
AcDbLine
 10
-1538.9982964591873
 20
-548.4613906359192
 30
0.0
 11
-578.99829645918726
 21
-548.4613906359192
 31
0.0
  0
LINE
  5
2E6
100
AcDbEntity
  8
0
  6
CONTINUOUS
 62
               3
100
AcDbLine
 10
-578.99829645918726
 20
-855.46139063591909
 30
0.0
 11
-1538.9982964591873
 21
-855.46139063591897
 31
0.0
  0
LINE
  5
2E7
100
AcDbEntity
  8
0
  6
CONTINUOUS
 62
               3
100
AcDbLine
 10
-578.99829645918726
 20
-930.46139063591909
 30
0.0
 11
-1538.9982964591873
 21
-930.46139063591897
 31
0.0
  0
LINE
  5
2E8
100
AcDbEntity
  8
0
  6
CONTINUOUS
 62
               3
100
AcDbLine
 10
-631.49829645918726
 20
-937.46139063591909
 30
0.0
 11
-681.49829645918726
 21
-937.46139063591909
 31
0.0
  0
LINE
  5
2E9
100
AcDbEntity
  8
0
  6
CONTINUOUS
 62
               3
100
AcDbLine
 10
-621.49829645918726
 20
-930.46139063591909
 30
0.0
 11
-621.49829645918726
 21
-932.96139063591909
 31
0.0
  0
LINE
  5
2EA
100
AcDbEntity
  8
0
  6
CONTINUOUS
 62
               3
100
AcDbLine
 10
-621.49829645918726
 20
-932.96139063591909
 30
0.0
 11
-691.49829645918726
 21
-932.96139063591909
 31
0.0
  0
LINE
  5
2EB
100
AcDbEntity
  8
0
  6
CONTINUOUS
 62
               3
100
AcDbLine
 10
-691.49829645918726
 20
-930.46139063591909
 30
0.0
 11
-691.49829645918726
 21
-932.96139063591909
 31
0.0
  0
LINE
  5
2EC
100
AcDbEntity
  8
0
  6
CONTINUOUS
 62
               3
100
AcDbLine
 10
-631.49829645918726
 20
-939.46139063591909
 30
0.0
 11
-681.49829645918726
 21
-939.46139063591909
 31
0.0
  0
CIRCLE
  5
2ED
100
AcDbEntity
  8
0
  6
CONTINUOUS
 62
               3
100
AcDbCircle
 10
-628.49829645918726
 20
-985.96139063591909
 30
0.0
 40
6.0
  0
LINE
  5
2EE
100
AcDbEntity
  8
0
  6
CONTINUOUS
 62
               3
100
AcDbLine
 10
-634.49829645918726
 20
-940.46139063591909
 30
0.0
 11
-678.49829645918726
 21
-940.46139063591909
 31
0.0
  0
LINE
  5
2EF
100
AcDbEntity
  8
0
  6
CONTINUOUS
 62
               3
100
AcDbLine
 10
-681.49829645918726
 20
-937.46139063591909
 30
0.0
 11
-681.49829645918726
 21
-939.46139063591909
 31
0.0
  0
LINE
  5
2F0
100
AcDbEntity
  8
0
  6
CONTINUOUS
 62
               3
100
AcDbLine
 10
-681.49829645918726
 20
-943.46139063591909
 30
0.0
 11
-681.49829645918726
 21
-950.46139063591909
 31
0.0
  0
LINE
  5
2F1
100
AcDbEntity
  8
0
  6
CONTINUOUS
 62
               3
100
AcDbLine
 10
-631.49829645918726
 20
-939.46139063591909
 30
0.0
 11
-631.49829645918726
 21
-937.46139063591909
 31
0.0
  0
LINE
  5
2F2
100
AcDbEntity
  8
0
  6
CONTINUOUS
 62
               3
100
AcDbLine
 10
-663.52260291599669
 20
-954.84461779822982
 30
0.0
 11
-638.01289517230907
 21
-992.42067939926164
 31
0.0
  0
LINE
  5
2F3
100
AcDbEntity
  8
0
  6
CONTINUOUS
 62
               3
100
AcDbLine
 10
-671.79616701436316
 20
-950.46139063591909
 30
0.0
 11
-681.49829645918726
 21
-950.46139063591909
 31
0.0
  0
ARC
  5
2F4
100
AcDbEntity
  8
0
  6
CONTINUOUS
 62
               3
100
AcDbCircle
 10
-628.49829645918726
 20
-985.96139063591909
 30
0.0
 40
11.499999999999998
100
AcDbArc
 50
214.17187263484846
 51
370.77344463711404
  0
ARC
  5
2F5
100
AcDbEntity
  8
0
  6
CONTINUOUS
 62
               3
100
AcDbCircle
 10
-671.79616701436316
 20
-960.46139063591909
 30
0.0
 40
10.0
100
AcDbArc
 50
34.171872634848803
 51
89.999999999999801
  0
LINE
  5
2F6
100
AcDbEntity
  8
0
  6
CONTINUOUS
 62
               3
100
AcDbLine
 10
-625.96549254706042
 20
-945.46139063591909
 30
0.0
 11
-629.49829645918726
 21
-945.46139063591909
 31
0.0
  0
LINE
  5
2F7
100
AcDbEntity
  8
0
  6
CONTINUOUS
 62
               3
100
AcDbLine
 10
-620.99706575347591
 20
-949.9003779829585
 30
0.0
 11
-617.07091483393924
 21
-984.67106153410987
 31
0.0
  0
ARC
  5
2F8
100
AcDbEntity
  8
0
  6
CONTINUOUS
 62
               3
100
AcDbCircle
 10
-625.96549254706042
 20
-950.46139063591909
 30
0.0
 40
5.0
100
AcDbArc
 50
6.4422974365453145
 51
89.999999999999801
  0
ARC
  5
2F9
100
AcDbEntity
  8
0
  6
CONTINUOUS
 62
               3
100
AcDbCircle
 10
-634.49829645918726
 20
-943.46139063591909
 30
0.0
 40
3.0
100
AcDbArc
 50
0.0
 51
89.999999999999801
  0
ARC
  5
2FA
100
AcDbEntity
  8
0
  6
CONTINUOUS
 62
               3
100
AcDbCircle
 10
-678.49829645918726
 20
-943.46139063591909
 30
0.0
 40
3.0
100
AcDbArc
 50
89.999999999999801
 51
179.9999999999996
  0
ARC
  5
2FB
100
AcDbEntity
  8
0
  6
CONTINUOUS
 62
               3
100
AcDbCircle
 10
-629.49829645918726
 20
-943.46139063591909
 30
0.0
 40
2.0
100
AcDbArc
 50
179.9999999999996
 51
269.99999999999937
  0
ARC
  5
2FC
100
AcDbEntity
  8
0
  6
CONTINUOUS
 62
               3
100
AcDbCircle
 10
-628.49829645918726
 20
-985.96139063591909
 30
0.0
 40
37.5
100
AcDbArc
 50
142.03033533325586
 51
438.66703613998925
  0
ARC
  5
2FD
100
AcDbEntity
  8
0
  6
CONTINUOUS
 62
               3
100
AcDbCircle
 10
-634.49829645918726
 20
-933.46139063591909
 30
0.0
 40
3.0
100
AcDbArc
 50
269.99999999999937
 51
359.9999999999992
  0
LINE
  5
2FE
100
AcDbEntity
  8
0
  6
CONTINUOUS
 62
               3
100
AcDbLine
 10
-634.49829645918726
 20
-936.46139063591909
 30
0.0
 11
-678.49829645918726
 21
-936.46139063591909
 31
0.0
  0
ARC
  5
2FF
100
AcDbEntity
  8
0
  6
CONTINUOUS
 62
               3
100
AcDbCircle
 10
-678.49829645918726
 20
-933.46139063591909
 30
0.0
 40
3.0
100
AcDbArc
 50
179.9999999999996
 51
269.99999999999937
  0
LINE
  5
300
100
AcDbEntity
  8
0
  6
CONTINUOUS
 62
               3
100
AcDbLine
 10
-681.49829645918726
 20
-932.96139063591909
 30
0.0
 11
-681.49829645918726
 21
-933.46139063591909
 31
0.0
  0
LINE
  5
301
100
AcDbEntity
  8
0
  6
CONTINUOUS
 62
               3
100
AcDbLine
 10
-631.49829645918726
 20
-932.96139063591909
 30
0.0
 11
-631.49829645918726
 21
-933.46139063591909
 31
0.0
  0
ARC
  5
302
100
AcDbEntity
  8
0
  6
CONTINUOUS
 62
               3
100
AcDbCircle
 10
-628.49829645918726
 20
-985.96139063591909
 30
0.0
 40
27.5
100
AcDbArc
 50
148.89172381775913
 51
431.72244625363385
  0
LINE
  5
303
100
AcDbEntity
  8
0
  6
CONTINUOUS
 62
               3
100
AcDbLine
 10
-1658.9982964591873
 20
-310.46139063591909
 30
0.0
 11
-458.99829645918726
 21
-310.46139063591909
 31
0.0
  0
LINE
  5
304
100
AcDbEntity
  8
0
  6
CONTINUOUS
 62
               3
100
AcDbLine
 10
-1638.9982964591873
 20
-950.46139063591932
 30
0.0
 11
-1538.9982964591873
 21
-950.46139063591909
 31
0.0
  0
LINE
  5
305
100
AcDbEntity
  8
0
  6
CONTINUOUS
 62
               3
100
AcDbLine
 10
-1571.6982964591862
 20
-1001.4613906359191
 30
0.0
 11
-1606.2982964591865
 21
-1001.4613906359191
 31
0.0
  0
LINE
  5
306
100
AcDbEntity
  8
0
  6
CONTINUOUS
 62
               3
100
AcDbLine
 10
-1571.6982964591862
 20
-1001.4613906359191
 30
0.0
 11
-1571.6982964591862
 21
-1011.844809882188
 31
0.0
  0
LINE
  5
307
100
AcDbEntity
  8
0
  6
CONTINUOUS
 62
               3
100
AcDbLine
 10
-1580.3585504970306
 20
-1011.844809882188
 30
0.0
 11
-1580.3585504970306
 21
-1001.4613906359191
 31
0.0
  0
LINE
  5
308
100
AcDbEntity
  8
0
  6
CONTINUOUS
 62
               3
100
AcDbLine
 10
-1568.9982964591873
 20
-1013.4613906359191
 30
0.0
 11
-1608.9982964591873
 21
-1013.4613906359191
 31
0.0
  0
LINE
  5
309
100
AcDbEntity
  8
0
  6
CONTINUOUS
 62
               3
100
AcDbLine
 10
-1606.2982964591865
 20
-1001.4613906359191
 30
0.0
 11
-1606.2982964591865
 21
-1011.844809882188
 31
0.0
  0
ARC
  5
30A
100
AcDbEntity
  8
0
  6
CONTINUOUS
 62
               3
100
AcDbCircle
 10
-1576.0284234781084
 20
-1006.8538230015683
 30
0.0
 40
6.6075676343505885
100
AcDbArc
 50
229.05544096051565
 51
310.94455903948312
  0
ARC
  5
30B
100
AcDbEntity
  8
0
  6
CONTINUOUS
 62
               3
100
AcDbCircle
 10
-1601.9681694402643
 20
-1006.8538230015683
 30
0.0
 40
6.6075676343505885
100
AcDbArc
 50
229.05544096051565
 51
310.94455903948312
  0
ARC
  5
30C
100
AcDbEntity
  8
0
  6
CONTINUOUS
 62
               3
100
AcDbCircle
 10
-1588.9982964591873
 20
-989.56572583674006
 30
0.0
 40
23.895664799178892
100
AcDbArc
 50
248.80389248660356
 51
291.19610751339525
  0
LINE
  5
30D
100
AcDbEntity
  8
0
  6
CONTINUOUS
 62
               3
100
AcDbLine
 10
-1618.9982964591873
 20
-1021.4613906359191
 30
0.0
 11
-1608.9982964591873
 21
-1013.4613906359191
 31
0.0
  0
LINE
  5
30E
100
AcDbEntity
  8
0
  6
CONTINUOUS
 62
               3
100
AcDbLine
 10
-1597.6380424213421
 20
-1011.844809882188
 30
0.0
 11
-1597.6380424213421
 21
-1001.4613906359191
 31
0.0
  0
LINE
  5
30F
100
AcDbEntity
  8
0
  6
CONTINUOUS
 62
               3
100
AcDbLine
 10
-1597.6380424213421
 20
-959.84480988218831
 30
0.0
 11
-1597.6380424213421
 21
-950.46139063591932
 31
0.0
  0
LINE
  5
310
100
AcDbEntity
  8
0
  6
CONTINUOUS
 62
               3
100
AcDbLine
 10
-1558.9982964591873
 20
-1021.4613906359191
 30
0.0
 11
-1618.9982964591873
 21
-1021.4613906359191
 31
0.0
  0
LINE
  5
311
100
AcDbEntity
  8
0
  6
CONTINUOUS
 62
               3
100
AcDbLine
 10
-1558.9982964591873
 20
-1021.4613906359191
 30
0.0
 11
-1568.9982964591873
 21
-1013.4613906359191
 31
0.0
  0
LINE
  5
312
100
AcDbEntity
  8
0
  6
CONTINUOUS
 62
               3
100
AcDbLine
 10
-1486.4982964591873
 20
-937.46139063591909
 30
0.0
 11
-1436.4982964591873
 21
-937.46139063591909
 31
0.0
  0
LINE
  5
313
100
AcDbEntity
  8
0
  6
CONTINUOUS
 62
               3
100
AcDbLine
 10
-1496.4982964591873
 20
-930.46139063591909
 30
0.0
 11
-1496.4982964591873
 21
-932.96139063591909
 31
0.0
  0
LINE
  5
314
100
AcDbEntity
  8
0
  6
CONTINUOUS
 62
               3
100
AcDbLine
 10
-1496.4982964591873
 20
-932.96139063591909
 30
0.0
 11
-1426.4982964591873
 21
-932.96139063591909
 31
0.0
  0
LINE
  5
315
100
AcDbEntity
  8
0
  6
CONTINUOUS
 62
               3
100
AcDbLine
 10
-1426.4982964591873
 20
-930.46139063591909
 30
0.0
 11
-1426.4982964591873
 21
-932.96139063591909
 31
0.0
  0
LINE
  5
316
100
AcDbEntity
  8
0
  6
CONTINUOUS
 62
               3
100
AcDbLine
 10
-1486.4982964591873
 20
-939.46139063591909
 30
0.0
 11
-1436.4982964591873
 21
-939.46139063591909
 31
0.0
  0
CIRCLE
  5
317
100
AcDbEntity
  8
0
  6
CONTINUOUS
 62
               3
100
AcDbCircle
 10
-1489.4982964591873
 20
-985.96139063591909
 30
0.0
 40
6.0
  0
LINE
  5
318
100
AcDbEntity
  8
0
  6
CONTINUOUS
 62
               3
100
AcDbLine
 10
-1483.4982964591873
 20
-940.46139063591909
 30
0.0
 11
-1439.4982964591873
 21
-940.46139063591909
 31
0.0
  0
LINE
  5
319
100
AcDbEntity
  8
0
  6
CONTINUOUS
 62
               3
100
AcDbLine
 10
-1436.4982964591873
 20
-937.46139063591909
 30
0.0
 11
-1436.4982964591873
 21
-939.46139063591909
 31
0.0
  0
LINE
  5
31A
100
AcDbEntity
  8
0
  6
CONTINUOUS
 62
               3
100
AcDbLine
 10
-1436.4982964591873
 20
-943.46139063591909
 30
0.0
 11
-1436.4982964591873
 21
-950.46139063591909
 31
0.0
  0
LINE
  5
31B
100
AcDbEntity
  8
0
  6
CONTINUOUS
 62
               3
100
AcDbLine
 10
-1486.4982964591873
 20
-939.46139063591909
 30
0.0
 11
-1486.4982964591873
 21
-937.46139063591909
 31
0.0
  0
LINE
  5
31C
100
AcDbEntity
  8
0
  6
CONTINUOUS
 62
               3
100
AcDbLine
 10
-1454.4739900023778
 20
-954.84461779822982
 30
0.0
 11
-1479.9836977460636
 21
-992.42067939926164
 31
0.0
  0
LINE
  5
31D
100
AcDbEntity
  8
0
  6
CONTINUOUS
 62
               3
100
AcDbLine
 10
-1446.2004259040095
 20
-950.46139063591909
 30
0.0
 11
-1436.4982964591873
 21
-950.46139063591909
 31
0.0
  0
ARC
  5
31E
100
AcDbEntity
  8
0
  6
CONTINUOUS
 62
               3
100
AcDbCircle
 10
-1489.4982964591873
 20
-985.96139063591909
 30
0.0
 40
11.499999999999998
100
AcDbArc
 50
169.22655536288474
 51
325.82812736515035
  0
ARC
  5
31F
100
AcDbEntity
  8
0
  6
CONTINUOUS
 62
               3
100
AcDbCircle
 10
-1446.2004259040095
 20
-960.46139063591909
 30
0.0
 40
10.0
100
AcDbArc
 50
89.999999999999801
 51
145.82812736515081
  0
LINE
  5
320
100
AcDbEntity
  8
0
  6
CONTINUOUS
 62
               3
100
AcDbLine
 10
-1492.0311003713123
 20
-945.46139063591909
 30
0.0
 11
-1488.4982964591873
 21
-945.46139063591909
 31
0.0
  0
LINE
  5
321
100
AcDbEntity
  8
0
  6
CONTINUOUS
 62
               3
100
AcDbLine
 10
-1496.9995271648968
 20
-949.9003779829585
 30
0.0
 11
-1500.9256780844335
 21
-984.67106153410987
 31
0.0
  0
ARC
  5
322
100
AcDbEntity
  8
0
  6
CONTINUOUS
 62
               3
100
AcDbCircle
 10
-1492.0311003713123
 20
-950.46139063591909
 30
0.0
 40
5.0
100
AcDbArc
 50
89.999999999999801
 51
173.55770256345428
  0
ARC
  5
323
100
AcDbEntity
  8
0
  6
CONTINUOUS
 62
               3
100
AcDbCircle
 10
-1483.4982964591873
 20
-943.46139063591909
 30
0.0
 40
3.0
100
AcDbArc
 50
89.999999999999801
 51
179.9999999999996
  0
ARC
  5
324
100
AcDbEntity
  8
0
  6
CONTINUOUS
 62
               3
100
AcDbCircle
 10
-1439.4982964591873
 20
-943.46139063591909
 30
0.0
 40
3.0
100
AcDbArc
 50
0.0
 51
89.999999999999801
  0
ARC
  5
325
100
AcDbEntity
  8
0
  6
CONTINUOUS
 62
               3
100
AcDbCircle
 10
-1488.4982964591873
 20
-943.46139063591909
 30
0.0
 40
2.0
100
AcDbArc
 50
269.99999999999937
 51
359.9999999999992
  0
ARC
  5
326
100
AcDbEntity
  8
0
  6
CONTINUOUS
 62
               3
100
AcDbCircle
 10
-1489.4982964591873
 20
-985.96139063591909
 30
0.0
 40
37.5
100
AcDbArc
 50
101.33296386000954
 51
397.96966466674291
  0
ARC
  5
327
100
AcDbEntity
  8
0
  6
CONTINUOUS
 62
               3
100
AcDbCircle
 10
-1483.4982964591873
 20
-933.46139063591909
 30
0.0
 40
3.0
100
AcDbArc
 50
179.9999999999996
 51
269.99999999999937
  0
LINE
  5
328
100
AcDbEntity
  8
0
  6
CONTINUOUS
 62
               3
100
AcDbLine
 10
-1483.4982964591873
 20
-936.46139063591909
 30
0.0
 11
-1439.4982964591873
 21
-936.46139063591909
 31
0.0
  0
ARC
  5
329
100
AcDbEntity
  8
0
  6
CONTINUOUS
 62
               3
100
AcDbCircle
 10
-1439.4982964591873
 20
-933.46139063591909
 30
0.0
 40
3.0
100
AcDbArc
 50
269.99999999999937
 51
359.9999999999992
  0
LINE
  5
32A
100
AcDbEntity
  8
0
  6
CONTINUOUS
 62
               3
100
AcDbLine
 10
-1436.4982964591873
 20
-932.96139063591909
 30
0.0
 11
-1436.4982964591873
 21
-933.46139063591909
 31
0.0
  0
LINE
  5
32B
100
AcDbEntity
  8
0
  6
CONTINUOUS
 62
               3
100
AcDbLine
 10
-1486.4982964591873
 20
-932.96139063591909
 30
0.0
 11
-1486.4982964591873
 21
-933.46139063591909
 31
0.0
  0
ARC
  5
32C
100
AcDbEntity
  8
0
  6
CONTINUOUS
 62
               3
100
AcDbCircle
 10
-1489.4982964591873
 20
-985.96139063591909
 30
0.0
 40
27.5
100
AcDbArc
 50
108.27755374636496
 51
391.10827618223965
  0
LINE
  5
32D
100
AcDbEntity
  8
0
  6
CONTINUOUS
 62
               3
100
AcDbLine
 10
-1648.9982964591873
 20
-443.4613906359192
 30
0.0
 11
-1528.9982964591873
 21
-443.4613906359192
 31
0.0
  0
LINE
  5
32E
100
AcDbEntity
  8
0
  6
CONTINUOUS
 62
               3
100
AcDbLine
 10
-1648.9982964591873
 20
-438.96139063591914
 30
0.0
 11
-1648.9982964591873
 21
-443.4613906359192
 31
0.0
  0
LINE
  5
32F
100
AcDbEntity
  8
0
  6
CONTINUOUS
 62
               3
100
AcDbLine
 10
-1528.9982964591873
 20
-443.4613906359192
 30
0.0
 11
-1528.9982964591873
 21
-438.96139063591914
 31
0.0
  0
LINE
  5
330
100
AcDbEntity
  8
0
  6
CONTINUOUS
 62
               3
100
AcDbLine
 10
-1693.9982964591873
 20
-440.4613906359192
 30
0.0
 11
-1693.9982964591873
 21
-438.9613906359192
 31
0.0
  0
ARC
  5
331
100
AcDbEntity
  8
0
  6
CONTINUOUS
 62
               3
100
AcDbCircle
 10
-1690.9982964591873
 20
-440.4613906359192
 30
0.0
 40
3.0
100
AcDbArc
 50
179.9999999999996
 51
269.99999999999937
  0
LINE
  5
332
100
AcDbEntity
  8
0
  6
CONTINUOUS
 62
               3
100
AcDbLine
 10
-1648.9982964591873
 20
-443.4613906359192
 30
0.0
 11
-1690.9982964591873
 21
-443.4613906359192
 31
0.0
  0
LINE
  5
333
100
AcDbEntity
  8
0
  6
CONTINUOUS
 62
               3
100
AcDbLine
 10
-1638.9982964591873
 20
-443.46139063591943
 30
0.0
 11
-1638.9982964591873
 21
-950.46139063591932
 31
0.0
  0
LINE
  5
334
100
AcDbEntity
  8
0
  6
CONTINUOUS
 62
               3
100
AcDbLine
 10
-1538.9982964591873
 20
-443.46139063591943
 30
0.0
 11
-1538.9982964591873
 21
-950.46139063591909
 31
0.0
  0
LINE
  5
335
100
AcDbEntity
  8
0
  6
CONTINUOUS
 62
               3
100
AcDbLine
 10
-1653.9982964591873
 20
-315.46139063591909
 30
0.0
 11
-1653.9982964591873
 21
-322.46139063591914
 31
0.0
  0
LINE
  5
336
100
AcDbEntity
  8
0
  6
CONTINUOUS
 62
               3
100
AcDbLine
 10
-458.99829645918726
 20
-310.46139063591909
 30
0.0
 11
-458.99829645918726
 21
-315.46139063591909
 31
0.0
  0
LINE
  5
337
100
AcDbEntity
  8
0
  6
CONTINUOUS
 62
               3
100
AcDbLine
 10
-463.99829645918726
 20
-315.46139063591909
 30
0.0
 11
-463.99829645918726
 21
-322.46139063591914
 31
0.0
  0
LINE
  5
338
100
AcDbEntity
  8
0
  6
CONTINUOUS
 62
               3
100
AcDbLine
 10
1611.0017035408127
 20
-310.46139063591909
 30
0.0
 11
1611.0017035408127
 21
-315.46139063591909
 31
0.0
  0
LINE
  5
339
100
AcDbEntity
  8
0
  6
CONTINUOUS
 62
               3
100
AcDbLine
 10
1606.0017035408127
 20
-315.46139063591909
 30
0.0
 11
1606.0017035408127
 21
-322.46139063591914
 31
0.0
  0
LINE
  5
33A
100
AcDbEntity
  8
0
  6
CONTINUOUS
 62
               3
100
AcDbLine
 10
611.00170354081274
 20
-310.46139063591909
 30
0.0
 11
1611.0017035408127
 21
-310.46139063591909
 31
0.0
  0
LINE
  5
33B
100
AcDbEntity
  8
0
  6
CONTINUOUS
 62
               3
100
AcDbLine
 10
611.00170354081274
 20
-310.46139063591909
 30
0.0
 11
611.00170354081274
 21
-315.46139063591909
 31
0.0
  0
LINE
  5
33C
100
AcDbEntity
  8
0
  6
CONTINUOUS
 62
               3
100
AcDbLine
 10
616.00170354081274
 20
-315.46139063591909
 30
0.0
 11
616.00170354081274
 21
-322.46139063591914
 31
0.0
  0
LINE
  5
33D
100
AcDbEntity
  8
0
  6
CONTINUOUS
 62
               3
100
AcDbLine
 10
741.00170354081274
 20
-443.4613906359192
 30
0.0
 11
621.00170354081274
 21
-443.4613906359192
 31
0.0
  0
LINE
  5
33E
100
AcDbEntity
  8
0
  6
CONTINUOUS
 62
               3
100
AcDbLine
 10
741.00170354081274
 20
-438.96139063591914
 30
0.0
 11
741.00170354081274
 21
-443.4613906359192
 31
0.0
  0
LINE
  5
33F
100
AcDbEntity
  8
0
  6
CONTINUOUS
 62
               3
100
AcDbLine
 10
621.00170354081274
 20
-443.4613906359192
 30
0.0
 11
621.00170354081274
 21
-438.96139063591914
 31
0.0
  0
LINE
  5
340
100
AcDbEntity
  8
0
  6
CONTINUOUS
 62
               3
100
AcDbLine
 10
731.00170354081274
 20
-443.46139063591943
 30
0.0
 11
731.00170354081274
 21
-950.46139063591932
 31
0.0
  0
LINE
  5
341
100
AcDbEntity
  8
0
  6
CONTINUOUS
 62
               3
100
AcDbLine
 10
631.00170354081274
 20
-443.46139063591943
 30
0.0
 11
631.00170354081274
 21
-950.46139063591909
 31
0.0
  0
LINE
  5
342
100
AcDbEntity
  8
0
  6
CONTINUOUS
 62
               3
100
AcDbLine
 10
731.00170354081274
 20
-950.46139063591932
 30
0.0
 11
631.00170354081274
 21
-950.46139063591909
 31
0.0
  0
LINE
  5
343
100
AcDbEntity
  8
0
  6
CONTINUOUS
 62
               3
100
AcDbLine
 10
663.70170354081347
 20
-1001.4613906359191
 30
0.0
 11
698.30170354081383
 21
-1001.4613906359191
 31
0.0
  0
LINE
  5
344
100
AcDbEntity
  8
0
  6
CONTINUOUS
 62
               3
100
AcDbLine
 10
663.70170354081347
 20
-1001.4613906359191
 30
0.0
 11
663.70170354081347
 21
-1011.844809882188
 31
0.0
  0
LINE
  5
345
100
AcDbEntity
  8
0
  6
CONTINUOUS
 62
               3
100
AcDbLine
 10
672.36195757865789
 20
-1011.844809882188
 30
0.0
 11
672.36195757865789
 21
-1001.4613906359191
 31
0.0
  0
LINE
  5
346
100
AcDbEntity
  8
0
  6
CONTINUOUS
 62
               3
100
AcDbLine
 10
661.00170354081456
 20
-1013.4613906359191
 30
0.0
 11
701.00170354081274
 21
-1013.4613906359191
 31
0.0
  0
LINE
  5
347
100
AcDbEntity
  8
0
  6
CONTINUOUS
 62
               3
100
AcDbLine
 10
698.30170354081383
 20
-1001.4613906359191
 30
0.0
 11
698.30170354081383
 21
-1011.844809882188
 31
0.0
  0
ARC
  5
348
100
AcDbEntity
  8
0
  6
CONTINUOUS
 62
               3
100
AcDbCircle
 10
668.03183055973568
 20
-1006.8538230015683
 30
0.0
 40
6.6075676343505885
100
AcDbArc
 50
229.05544096051565
 51
310.94455903948312
  0
ARC
  5
349
100
AcDbEntity
  8
0
  6
CONTINUOUS
 62
               3
100
AcDbCircle
 10
693.97157652189162
 20
-1006.8538230015683
 30
0.0
 40
6.6075676343505885
100
AcDbArc
 50
229.05544096051565
 51
310.94455903948312
  0
ARC
  5
34A
100
AcDbEntity
  8
0
  6
CONTINUOUS
 62
               3
100
AcDbCircle
 10
681.00170354081274
 20
-989.56572583674006
 30
0.0
 40
23.895664799178892
100
AcDbArc
 50
248.80389248660356
 51
291.19610751339525
  0
LINE
  5
34B
100
AcDbEntity
  8
0
  6
CONTINUOUS
 62
               3
100
AcDbLine
 10
711.00170354081274
 20
-1021.4613906359191
 30
0.0
 11
701.00170354081274
 21
-1013.4613906359191
 31
0.0
  0
LINE
  5
34C
100
AcDbEntity
  8
0
  6
CONTINUOUS
 62
               3
100
AcDbLine
 10
689.64144950296941
 20
-1011.844809882188
 30
0.0
 11
689.64144950296941
 21
-1001.4613906359191
 31
0.0
  0
LINE
  5
34D
100
AcDbEntity
  8
0
  6
CONTINUOUS
 62
               3
100
AcDbLine
 10
689.64144950296941
 20
-959.84480988218831
 30
0.0
 11
689.64144950296941
 21
-950.46139063591932
 31
0.0
  0
LINE
  5
34E
100
AcDbEntity
  8
0
  6
CONTINUOUS
 62
               3
100
AcDbLine
 10
651.00170354081274
 20
-1021.4613906359191
 30
0.0
 11
711.00170354081274
 21
-1021.4613906359191
 31
0.0
  0
LINE
  5
34F
100
AcDbEntity
  8
0
  6
CONTINUOUS
 62
               3
100
AcDbLine
 10
651.00170354081274
 20
-1021.4613906359191
 30
0.0
 11
661.00170354081274
 21
-1013.4613906359191
 31
0.0
  0
LINE
  5
350
100
AcDbEntity
  8
0
  6
CONTINUOUS
 62
               3
100
AcDbLine
 10
656.00170354081274
 20
-438.96139063591914
 30
0.0
 11
656.00170354081274
 21
-443.4613906359192
 31
0.0
  0
LINE
  5
351
100
AcDbEntity
  8
0
  6
CONTINUOUS
 62
               3
100
AcDbLine
 10
706.00170354081274
 20
-438.96139063591914
 30
0.0
 11
706.00170354081274
 21
-443.4613906359192
 31
0.0
  0
LINE
  5
352
100
AcDbEntity
  8
0
  6
CONTINUOUS
 62
               3
100
AcDbLine
 10
1481.0017035408127
 20
-443.4613906359192
 30
0.0
 11
1601.0017035408127
 21
-443.4613906359192
 31
0.0
  0
LINE
  5
353
100
AcDbEntity
  8
0
  6
CONTINUOUS
 62
               3
100
AcDbLine
 10
1481.0017035408127
 20
-438.96139063591914
 30
0.0
 11
1481.0017035408127
 21
-443.4613906359192
 31
0.0
  0
LINE
  5
354
100
AcDbEntity
  8
0
  6
CONTINUOUS
 62
               3
100
AcDbLine
 10
1601.0017035408127
 20
-443.4613906359192
 30
0.0
 11
1601.0017035408127
 21
-438.96139063591914
 31
0.0
  0
LINE
  5
355
100
AcDbEntity
  8
0
  6
CONTINUOUS
 62
               3
100
AcDbLine
 10
1491.0017035408127
 20
-443.46139063591943
 30
0.0
 11
1491.0017035408127
 21
-950.46139063591932
 31
0.0
  0
LINE
  5
356
100
AcDbEntity
  8
0
  6
CONTINUOUS
 62
               3
100
AcDbLine
 10
1591.0017035408127
 20
-443.46139063591943
 30
0.0
 11
1591.0017035408127
 21
-950.46139063591909
 31
0.0
  0
LINE
  5
357
100
AcDbEntity
  8
0
  6
CONTINUOUS
 62
               3
100
AcDbLine
 10
1491.0017035408127
 20
-950.46139063591932
 30
0.0
 11
1591.0017035408127
 21
-950.46139063591909
 31
0.0
  0
LINE
  5
358
100
AcDbEntity
  8
0
  6
CONTINUOUS
 62
               3
100
AcDbLine
 10
1558.3017035408138
 20
-1001.4613906359191
 30
0.0
 11
1523.7017035408135
 21
-1001.4613906359191
 31
0.0
  0
LINE
  5
359
100
AcDbEntity
  8
0
  6
CONTINUOUS
 62
               3
100
AcDbLine
 10
1558.3017035408138
 20
-1001.4613906359191
 30
0.0
 11
1558.3017035408138
 21
-1011.844809882188
 31
0.0
  0
LINE
  5
35A
100
AcDbEntity
  8
0
  6
CONTINUOUS
 62
               3
100
AcDbLine
 10
1549.6414495029694
 20
-1011.844809882188
 30
0.0
 11
1549.6414495029694
 21
-1001.4613906359191
 31
0.0
  0
LINE
  5
35B
100
AcDbEntity
  8
0
  6
CONTINUOUS
 62
               3
100
AcDbLine
 10
1561.0017035408127
 20
-1013.4613906359191
 30
0.0
 11
1521.0017035408127
 21
-1013.4613906359191
 31
0.0
  0
LINE
  5
35C
100
AcDbEntity
  8
0
  6
CONTINUOUS
 62
               3
100
AcDbLine
 10
1523.7017035408135
 20
-1001.4613906359191
 30
0.0
 11
1523.7017035408135
 21
-1011.844809882188
 31
0.0
  0
ARC
  5
35D
100
AcDbEntity
  8
0
  6
CONTINUOUS
 62
               3
100
AcDbCircle
 10
1553.9715765218916
 20
-1006.8538230015683
 30
0.0
 40
6.6075676343505885
100
AcDbArc
 50
229.05544096051565
 51
310.94455903948312
  0
ARC
  5
35E
100
AcDbEntity
  8
0
  6
CONTINUOUS
 62
               3
100
AcDbCircle
 10
1528.0318305597357
 20
-1006.8538230015683
 30
0.0
 40
6.6075676343505885
100
AcDbArc
 50
229.05544096051565
 51
310.94455903948312
  0
ARC
  5
35F
100
AcDbEntity
  8
0
  6
CONTINUOUS
 62
               3
100
AcDbCircle
 10
1541.0017035408127
 20
-989.56572583674006
 30
0.0
 40
23.895664799178892
100
AcDbArc
 50
248.80389248660356
 51
291.19610751339525
  0
LINE
  5
360
100
AcDbEntity
  8
0
  6
CONTINUOUS
 62
               3
100
AcDbLine
 10
1511.0017035408127
 20
-1021.4613906359191
 30
0.0
 11
1521.0017035408127
 21
-1013.4613906359191
 31
0.0
  0
LINE
  5
361
100
AcDbEntity
  8
0
  6
CONTINUOUS
 62
               3
100
AcDbLine
 10
1532.3619575786579
 20
-1011.844809882188
 30
0.0
 11
1532.3619575786579
 21
-1001.4613906359191
 31
0.0
  0
LINE
  5
362
100
AcDbEntity
  8
0
  6
CONTINUOUS
 62
               3
100
AcDbLine
 10
1532.3619575786579
 20
-959.84480988218831
 30
0.0
 11
1532.3619575786579
 21
-950.46139063591932
 31
0.0
  0
LINE
  5
363
100
AcDbEntity
  8
0
  6
CONTINUOUS
 62
               3
100
AcDbLine
 10
1571.0017035408127
 20
-1021.4613906359191
 30
0.0
 11
1511.0017035408127
 21
-1021.4613906359191
 31
0.0
  0
LINE
  5
364
100
AcDbEntity
  8
0
  6
CONTINUOUS
 62
               3
100
AcDbLine
 10
1571.0017035408127
 20
-1021.4613906359191
 30
0.0
 11
1561.0017035408127
 21
-1013.4613906359191
 31
0.0
  0
LINE
  5
365
100
AcDbEntity
  8
0
  6
CONTINUOUS
 62
               3
100
AcDbLine
 10
1566.0017035408127
 20
-438.96139063591914
 30
0.0
 11
1566.0017035408127
 21
-443.4613906359192
 31
0.0
  0
LINE
  5
366
100
AcDbEntity
  8
0
  6
CONTINUOUS
 62
               3
100
AcDbLine
 10
1516.0017035408127
 20
-438.96139063591914
 30
0.0
 11
1516.0017035408127
 21
-443.4613906359192
 31
0.0
  0
LINE
  5
367
100
AcDbEntity
  8
0
  6
CONTINUOUS
 62
               3
100
AcDbLine
 10
731.00170354081274
 20
-473.4613906359192
 30
0.0
 11
1491.0017035408127
 21
-473.4613906359192
 31
0.0
  0
LINE
  5
368
100
AcDbEntity
  8
0
  6
CONTINUOUS
 62
               3
100
AcDbLine
 10
731.00170354081274
 20
-548.4613906359192
 30
0.0
 11
1491.0017035408127
 21
-548.4613906359192
 31
0.0
  0
LINE
  5
369
100
AcDbEntity
  8
0
  6
CONTINUOUS
 62
               3
100
AcDbLine
 10
731.00170354081274
 20
-855.46139063591932
 30
0.0
 11
1491.0017035408127
 21
-855.46139063591932
 31
0.0
  0
LINE
  5
36A
100
AcDbEntity
  8
0
  6
CONTINUOUS
 62
               3
100
AcDbLine
 10
731.00170354081274
 20
-930.46139063591932
 30
0.0
 11
1491.0017035408127
 21
-930.46139063591932
 31
0.0
  0
LINE
  5
36B
100
AcDbEntity
  8
0
  6
CONTINUOUS
 62
               3
100
AcDbLine
 10
-498.99829645918726
 20
-1021.4613906359191
 30
0.0
 11
-498.99829645918726
 21
-1030.4613906359191
 31
0.0
  0
LINE
  5
36C
100
AcDbEntity
  8
0
  6
CONTINUOUS
 62
               3
100
AcDbLine
 10
-498.99829645918726
 20
-1030.4613906359191
 30
0.0
 11
-558.99829645918726
 21
-1030.4613906359191
 31
0.0
  0
LINE
  5
36D
100
AcDbEntity
  8
0
  6
CONTINUOUS
 62
               3
100
AcDbLine
 10
-558.99829645918726
 20
-1030.4613906359191
 30
0.0
 11
-558.99829645918726
 21
-1021.4613906359191
 31
0.0
  0
LINE
  5
36E
100
AcDbEntity
  8
0
  6
CONTINUOUS
 62
               3
100
AcDbLine
 10
-1618.9982964591873
 20
-1021.4613906359191
 30
0.0
 11
-1618.9982964591873
 21
-1030.4613906359191
 31
0.0
  0
LINE
  5
36F
100
AcDbEntity
  8
0
  6
CONTINUOUS
 62
               3
100
AcDbLine
 10
-1618.9982964591873
 20
-1030.4613906359191
 30
0.0
 11
-1558.9982964591873
 21
-1030.4613906359191
 31
0.0
  0
LINE
  5
370
100
AcDbEntity
  8
0
  6
CONTINUOUS
 62
               3
100
AcDbLine
 10
-1558.9982964591873
 20
-1030.4613906359191
 30
0.0
 11
-1558.9982964591873
 21
-1021.4613906359191
 31
0.0
  0
LINE
  5
371
100
AcDbEntity
  8
0
  6
CONTINUOUS
 62
               3
100
AcDbLine
 10
711.00170354081274
 20
-1021.4613906359191
 30
0.0
 11
711.00170354081274
 21
-1030.4613906359191
 31
0.0
  0
LINE
  5
372
100
AcDbEntity
  8
0
  6
CONTINUOUS
 62
               3
100
AcDbLine
 10
711.00170354081274
 20
-1030.4613906359191
 30
0.0
 11
651.00170354081274
 21
-1030.4613906359191
 31
0.0
  0
LINE
  5
373
100
AcDbEntity
  8
0
  6
CONTINUOUS
 62
               3
100
AcDbLine
 10
651.00170354081274
 20
-1030.4613906359191
 30
0.0
 11
651.00170354081274
 21
-1021.4613906359191
 31
0.0
  0
LINE
  5
374
100
AcDbEntity
  8
0
  6
CONTINUOUS
 62
               3
100
AcDbLine
 10
1511.0017035408127
 20
-1021.4613906359191
 30
0.0
 11
1511.0017035408127
 21
-1030.4613906359191
 31
0.0
  0
LINE
  5
375
100
AcDbEntity
  8
0
  6
CONTINUOUS
 62
               3
100
AcDbLine
 10
1511.0017035408127
 20
-1030.4613906359191
 30
0.0
 11
1571.0017035408127
 21
-1030.4613906359191
 31
0.0
  0
LINE
  5
376
100
AcDbEntity
  8
0
  6
CONTINUOUS
 62
               3
100
AcDbLine
 10
1571.0017035408127
 20
-1030.4613906359191
 30
0.0
 11
1571.0017035408127
 21
-1021.4613906359191
 31
0.0
  0
LINE
  5
377
100
AcDbEntity
  8
0
  6
CONTINUOUS
 62
               3
100
AcDbLine
 10
783.50170354081274
 20
-937.46139063591943
 30
0.0
 11
833.50170354081274
 21
-937.46139063591943
 31
0.0
  0
LINE
  5
378
100
AcDbEntity
  8
0
  6
CONTINUOUS
 62
               3
100
AcDbLine
 10
773.50170354081274
 20
-930.46139063591943
 30
0.0
 11
773.50170354081274
 21
-932.96139063591943
 31
0.0
  0
LINE
  5
379
100
AcDbEntity
  8
0
  6
CONTINUOUS
 62
               3
100
AcDbLine
 10
773.50170354081274
 20
-932.96139063591943
 30
0.0
 11
843.50170354081274
 21
-932.96139063591943
 31
0.0
  0
LINE
  5
37A
100
AcDbEntity
  8
0
  6
CONTINUOUS
 62
               3
100
AcDbLine
 10
843.50170354081274
 20
-930.46139063591943
 30
0.0
 11
843.50170354081274
 21
-932.96139063591943
 31
0.0
  0
LINE
  5
37B
100
AcDbEntity
  8
0
  6
CONTINUOUS
 62
               3
100
AcDbLine
 10
783.50170354081274
 20
-939.46139063591943
 30
0.0
 11
833.50170354081274
 21
-939.46139063591943
 31
0.0
  0
CIRCLE
  5
37C
100
AcDbEntity
  8
0
  6
CONTINUOUS
 62
               3
100
AcDbCircle
 10
780.50170354081274
 20
-985.96139063591943
 30
0.0
 40
6.0
  0
LINE
  5
37D
100
AcDbEntity
  8
0
  6
CONTINUOUS
 62
               3
100
AcDbLine
 10
786.50170354081274
 20
-940.46139063591943
 30
0.0
 11
830.50170354081274
 21
-940.46139063591943
 31
0.0
  0
LINE
  5
37E
100
AcDbEntity
  8
0
  6
CONTINUOUS
 62
               3
100
AcDbLine
 10
833.50170354081274
 20
-937.46139063591943
 30
0.0
 11
833.50170354081274
 21
-939.46139063591943
 31
0.0
  0
LINE
  5
37F
100
AcDbEntity
  8
0
  6
CONTINUOUS
 62
               3
100
AcDbLine
 10
833.50170354081274
 20
-943.46139063591943
 30
0.0
 11
833.50170354081274
 21
-950.46139063591943
 31
0.0
  0
LINE
  5
380
100
AcDbEntity
  8
0
  6
CONTINUOUS
 62
               3
100
AcDbLine
 10
783.50170354081274
 20
-939.46139063591943
 30
0.0
 11
783.50170354081274
 21
-937.46139063591943
 31
0.0
  0
LINE
  5
381
100
AcDbEntity
  8
0
  6
CONTINUOUS
 62
               3
100
AcDbLine
 10
815.52600999762217
 20
-954.84461779823016
 30
0.0
 11
790.01630225393637
 21
-992.42067939926199
 31
0.0
  0
LINE
  5
382
100
AcDbEntity
  8
0
  6
CONTINUOUS
 62
               3
100
AcDbLine
 10
823.79957409599047
 20
-950.46139063591943
 30
0.0
 11
833.50170354081274
 21
-950.46139063591943
 31
0.0
  0
ARC
  5
383
100
AcDbEntity
  8
0
  6
CONTINUOUS
 62
               3
100
AcDbCircle
 10
780.50170354081274
 20
-985.96139063591943
 30
0.0
 40
11.499999999999998
100
AcDbArc
 50
169.22655536288474
 51
325.82812736515035
  0
ARC
  5
384
100
AcDbEntity
  8
0
  6
CONTINUOUS
 62
               3
100
AcDbCircle
 10
823.79957409599047
 20
-960.46139063591943
 30
0.0
 40
10.0
100
AcDbArc
 50
89.999999999999801
 51
145.82812736515081
  0
LINE
  5
385
100
AcDbEntity
  8
0
  6
CONTINUOUS
 62
               3
100
AcDbLine
 10
777.96889962868772
 20
-945.46139063591943
 30
0.0
 11
781.50170354081274
 21
-945.46139063591943
 31
0.0
  0
LINE
  5
386
100
AcDbEntity
  8
0
  6
CONTINUOUS
 62
               3
100
AcDbLine
 10
773.00047283510321
 20
-949.90037798295884
 30
0.0
 11
769.07432191556654
 21
-984.67106153411021
 31
0.0
  0
ARC
  5
387
100
AcDbEntity
  8
0
  6
CONTINUOUS
 62
               3
100
AcDbCircle
 10
777.96889962868772
 20
-950.46139063591943
 30
0.0
 40
5.0
100
AcDbArc
 50
89.999999999999801
 51
173.55770256345428
  0
ARC
  5
388
100
AcDbEntity
  8
0
  6
CONTINUOUS
 62
               3
100
AcDbCircle
 10
786.50170354081274
 20
-943.46139063591943
 30
0.0
 40
3.0
100
AcDbArc
 50
89.999999999999801
 51
179.9999999999996
  0
ARC
  5
389
100
AcDbEntity
  8
0
  6
CONTINUOUS
 62
               3
100
AcDbCircle
 10
830.50170354081274
 20
-943.46139063591943
 30
0.0
 40
3.0
100
AcDbArc
 50
0.0
 51
89.999999999999801
  0
ARC
  5
38A
100
AcDbEntity
  8
0
  6
CONTINUOUS
 62
               3
100
AcDbCircle
 10
781.50170354081274
 20
-943.46139063591943
 30
0.0
 40
2.0
100
AcDbArc
 50
269.99999999999937
 51
359.9999999999992
  0
ARC
  5
38B
100
AcDbEntity
  8
0
  6
CONTINUOUS
 62
               3
100
AcDbCircle
 10
780.50170354081274
 20
-985.96139063591943
 30
0.0
 40
37.5
100
AcDbArc
 50
101.33296386000954
 51
397.96966466674291
  0
ARC
  5
38C
100
AcDbEntity
  8
0
  6
CONTINUOUS
 62
               3
100
AcDbCircle
 10
786.50170354081274
 20
-933.46139063591943
 30
0.0
 40
3.0
100
AcDbArc
 50
179.9999999999996
 51
269.99999999999937
  0
LINE
  5
38D
100
AcDbEntity
  8
0
  6
CONTINUOUS
 62
               3
100
AcDbLine
 10
786.50170354081274
 20
-936.46139063591943
 30
0.0
 11
830.50170354081274
 21
-936.46139063591943
 31
0.0
  0
ARC
  5
38E
100
AcDbEntity
  8
0
  6
CONTINUOUS
 62
               3
100
AcDbCircle
 10
830.50170354081274
 20
-933.46139063591943
 30
0.0
 40
3.0
100
AcDbArc
 50
269.99999999999937
 51
359.9999999999992
  0
LINE
  5
38F
100
AcDbEntity
  8
0
  6
CONTINUOUS
 62
               3
100
AcDbLine
 10
833.50170354081274
 20
-932.96139063591943
 30
0.0
 11
833.50170354081274
 21
-933.46139063591943
 31
0.0
  0
LINE
  5
390
100
AcDbEntity
  8
0
  6
CONTINUOUS
 62
               3
100
AcDbLine
 10
783.50170354081274
 20
-932.96139063591943
 30
0.0
 11
783.50170354081274
 21
-933.46139063591943
 31
0.0
  0
ARC
  5
391
100
AcDbEntity
  8
0
  6
CONTINUOUS
 62
               3
100
AcDbCircle
 10
780.50170354081274
 20
-985.96139063591943
 30
0.0
 40
27.5
100
AcDbArc
 50
108.27755374636496
 51
391.10827618223965
  0
CIRCLE
  5
392
100
AcDbEntity
  8
0
  6
CONTINUOUS
 62
               4
100
AcDbCircle
 10
-558.99829645918726
 20
1084.5386093640809
 30
0.0
 40
2.5
  0
CIRCLE
  5
393
100
AcDbEntity
  8
0
  6
CONTINUOUS
 62
               4
100
AcDbCircle
 10
-1558.9982964591873
 20
1084.5386093640809
 30
0.0
 40
2.5
  0
CIRCLE
  5
394
100
AcDbEntity
  8
0
  6
CONTINUOUS
 62
               4
100
AcDbCircle
 10
-433.99829645918726
 20
1009.5386093640809
 30
0.0
 40
2.5
  0
CIRCLE
  5
395
100
AcDbEntity
  8
0
  6
CONTINUOUS
 62
               4
100
AcDbCircle
 10
-433.99829645918726
 20
109.53860936408091
 30
0.0
 40
2.5
  0
CIRCLE
  5
396
100
AcDbEntity
  8
0
  6
CONTINUOUS
 62
               4
100
AcDbCircle
 10
-1683.9982964591873
 20
1009.5386093640809
 30
0.0
 40
2.5
  0
CIRCLE
  5
397
100
AcDbEntity
  8
0
  6
CONTINUOUS
 62
               4
100
AcDbCircle
 10
-1683.9982964591873
 20
109.53860936408114
 30
0.0
 40
2.5
  0
LINE
  5
398
100
AcDbEntity
  8
0
  6
CONTINUOUS
 62
               4
100
AcDbLine
 10
-1658.9982964591873
 20
-315.46139063591909
 30
0.0
 11
-458.99829645918726
 21
-315.46139063591909
 31
0.0
  0
LINE
  5
399
100
AcDbEntity
  8
0
  6
CONTINUOUS
 62
               4
100
AcDbLine
 10
611.00170354081274
 20
-315.46139063591909
 30
0.0
 11
1611.0017035408127
 21
-315.46139063591909
 31
0.0
  0
LINE
  5
39A
100
AcDbEntity
  8
0
  6
CONTINUOUS
 62
               4
100
AcDbLine
 10
-1597.8982964591873
 20
-1001.4613906359191
 30
0.0
 11
-1597.8982964591873
 21
-961.4613906359192
 31
0.0
  0
LINE
  5
39B
100
AcDbEntity
  8
0
  6
CONTINUOUS
 62
               4
100
AcDbLine
 10
-1580.0982964591872
 20
-1001.4613906359191
 30
0.0
 11
-1580.0982964591872
 21
-961.4613906359192
 31
0.0
  0
LINE
  5
39C
100
AcDbEntity
  8
0
  6
CONTINUOUS
 62
               4
100
AcDbLine
 10
-537.89829645918724
 20
-1001.4613906359191
 30
0.0
 11
-537.89829645918724
 21
-961.4613906359192
 31
0.0
  0
LINE
  5
39D
100
AcDbEntity
  8
0
  6
CONTINUOUS
 62
               4
100
AcDbLine
 10
-520.09829645918728
 20
-1001.4613906359191
 30
0.0
 11
-520.09829645918728
 21
-961.4613906359192
 31
0.0
  0
LINE
  5
39E
100
AcDbEntity
  8
0
  6
CONTINUOUS
 62
               4
100
AcDbLine
 10
672.10170354081276
 20
-1001.4613906359191
 30
0.0
 11
672.10170354081276
 21
-961.4613906359192
 31
0.0
  0
LINE
  5
39F
100
AcDbEntity
  8
0
  6
CONTINUOUS
 62
               4
100
AcDbLine
 10
689.90170354081272
 20
-1001.4613906359191
 30
0.0
 11
689.90170354081272
 21
-961.4613906359192
 31
0.0
  0
LINE
  5
3A0
100
AcDbEntity
  8
0
  6
CONTINUOUS
 62
               4
100
AcDbLine
 10
1532.1017035408127
 20
-1001.4613906359191
 30
0.0
 11
1532.1017035408127
 21
-961.4613906359192
 31
0.0
  0
LINE
  5
3A1
100
AcDbEntity
  8
0
  6
CONTINUOUS
 62
               4
100
AcDbLine
 10
1549.9017035408128
 20
-1001.4613906359191
 30
0.0
 11
1549.9017035408128
 21
-961.4613906359192
 31
0.0
  0
LINE
  5
3A2
100
AcDbEntity
  8
0
  6
DASHED2
 62
               4
100
AcDbLine
 10
-446.99829645918726
 20
-322.46139063591914
 30
0.0
 11
-446.99829645918726
 21
-438.96139063591914
 31
0.0
  0
LINE
  5
3A3
100
AcDbEntity
  8
0
  6
DASHED2
 62
               4
100
AcDbLine
 10
599.00170354081274
 20
-322.46139063591914
 30
0.0
 11
599.00170354081274
 21
-438.96139063591914
 31
0.0
  0
LINE
  5
3A4
100
AcDbEntity
  8
0
  6
DASHED2
 62
               4
100
AcDbLine
 10
1623.0017035408127
 20
-322.46139063591914
 30
0.0
 11
1623.0017035408127
 21
-438.96139063591914
 31
0.0
  0
LINE
  5
3A5
100
AcDbEntity
  8
0
  6
DASHED2
 62
               4
100
AcDbLine
 10
529.00170354081274
 20
-387.46139063591914
 30
0.0
 11
599.00170354081274
 21
-387.46139063591914
 31
0.0
  0
LINE
  5
3A6
100
AcDbEntity
  8
0
  6
DASHED2
 62
               4
100
AcDbLine
 10
-1670.9982964591873
 20
-322.46139063591914
 30
0.0
 11
-1670.9982964591873
 21
-438.96139063591914
 31
0.0
  0
LINE
  5
3A7
100
AcDbEntity
  8
0
  6
DASHED2
 62
               4
100
AcDbLine
 10
-566.49829645918726
 20
-473.4613906359192
 30
0.0
 11
-491.49829645918726
 21
-473.4613906359192
 31
0.0
  0
LINE
  5
3A8
100
AcDbEntity
  8
0
  6
DASHED2
 62
               4
100
AcDbLine
 10
-491.49829645918726
 20
-548.4613906359192
 30
0.0
 11
-566.49829645918726
 21
-548.4613906359192
 31
0.0
  0
LINE
  5
3A9
100
AcDbEntity
  8
0
  6
DASHED2
 62
               4
100
AcDbLine
 10
-566.49829645918726
 20
-548.4613906359192
 30
0.0
 11
-566.49829645918726
 21
-473.4613906359192
 31
0.0
  0
LINE
  5
3AA
100
AcDbEntity
  8
0
  6
DASHED2
 62
               4
100
AcDbLine
 10
-491.49829645918726
 20
-473.4613906359192
 30
0.0
 11
-491.49829645918726
 21
-548.4613906359192
 31
0.0
  0
LINE
  5
3AB
100
AcDbEntity
  8
0
  6
DASHED2
 62
               4
100
AcDbLine
 10
-491.49829645918726
 20
-855.46139063591932
 30
0.0
 11
-566.49829645918726
 21
-855.46139063591909
 31
0.0
  0
LINE
  5
3AC
100
AcDbEntity
  8
0
  6
DASHED2
 62
               4
100
AcDbLine
 10
-566.49829645918726
 20
-930.46139063591909
 30
0.0
 11
-491.49829645918726
 21
-930.46139063591932
 31
0.0
  0
LINE
  5
3AD
100
AcDbEntity
  8
0
  6
DASHED2
 62
               4
100
AcDbLine
 10
-491.49829645918726
 20
-930.46139063591932
 30
0.0
 11
-491.49829645918726
 21
-855.46139063591932
 31
0.0
  0
LINE
  5
3AE
100
AcDbEntity
  8
0
  6
DASHED2
 62
               4
100
AcDbLine
 10
-566.49829645918726
 20
-855.46139063591909
 30
0.0
 11
-566.49829645918726
 21
-930.46139063591909
 31
0.0
  0
LINE
  5
3AF
100
AcDbEntity
  8
0
  6
DASHED2
 62
               4
100
AcDbLine
 10
-1626.4982964591873
 20
-855.46139063591932
 30
0.0
 11
-1551.4982964591873
 21
-855.46139063591909
 31
0.0
  0
LINE
  5
3B0
100
AcDbEntity
  8
0
  6
DASHED2
 62
               4
100
AcDbLine
 10
-1551.4982964591873
 20
-930.46139063591909
 30
0.0
 11
-1626.4982964591873
 21
-930.46139063591932
 31
0.0
  0
LINE
  5
3B1
100
AcDbEntity
  8
0
  6
DASHED2
 62
               4
100
AcDbLine
 10
-1626.4982964591873
 20
-930.46139063591932
 30
0.0
 11
-1626.4982964591873
 21
-855.46139063591932
 31
0.0
  0
LINE
  5
3B2
100
AcDbEntity
  8
0
  6
DASHED2
 62
               4
100
AcDbLine
 10
-1551.4982964591873
 20
-855.46139063591909
 30
0.0
 11
-1551.4982964591873
 21
-930.46139063591909
 31
0.0
  0
LINE
  5
3B3
100
AcDbEntity
  8
0
  6
DASHED2
 62
               4
100
AcDbLine
 10
-1551.4982964591873
 20
-473.4613906359192
 30
0.0
 11
-1626.4982964591873
 21
-473.4613906359192
 31
0.0
  0
LINE
  5
3B4
100
AcDbEntity
  8
0
  6
DASHED2
 62
               4
100
AcDbLine
 10
-1626.4982964591873
 20
-548.4613906359192
 30
0.0
 11
-1551.4982964591873
 21
-548.4613906359192
 31
0.0
  0
LINE
  5
3B5
100
AcDbEntity
  8
0
  6
DASHED2
 62
               4
100
AcDbLine
 10
-1551.4982964591873
 20
-548.4613906359192
 30
0.0
 11
-1551.4982964591873
 21
-473.4613906359192
 31
0.0
  0
LINE
  5
3B6
100
AcDbEntity
  8
0
  6
DASHED2
 62
               4
100
AcDbLine
 10
-1626.4982964591873
 20
-473.4613906359192
 30
0.0
 11
-1626.4982964591873
 21
-548.4613906359192
 31
0.0
  0
LINE
  5
3B7
100
AcDbEntity
  8
0
  6
DASHED2
 62
               4
100
AcDbLine
 10
1073.5017035408127
 20
-548.4613906359192
 30
0.0
 11
1073.5017035408127
 21
-473.4613906359192
 31
0.0
  0
LINE
  5
3B8
100
AcDbEntity
  8
0
  6
DASHED2
 62
               4
100
AcDbLine
 10
1148.5017035408127
 20
-473.4613906359192
 30
0.0
 11
1148.5017035408127
 21
-548.4613906359192
 31
0.0
  0
LINE
  5
3B9
100
AcDbEntity
  8
0
  6
DASHED2
 62
               4
100
AcDbLine
 10
1148.5017035408127
 20
-930.46139063591932
 30
0.0
 11
1148.5017035408127
 21
-855.46139063591932
 31
0.0
  0
LINE
  5
3BA
100
AcDbEntity
  8
0
  6
DASHED2
 62
               4
100
AcDbLine
 10
1073.5017035408127
 20
-855.46139063591909
 30
0.0
 11
1073.5017035408127
 21
-930.46139063591909
 31
0.0
  0
LINE
  5
3BB
100
AcDbEntity
  8
0
  6
DASHED2
 62
               4
100
AcDbLine
 10
1578.5017035408127
 20
-473.4613906359192
 30
0.0
 11
1503.5017035408127
 21
-473.4613906359192
 31
0.0
  0
LINE
  5
3BC
100
AcDbEntity
  8
0
  6
DASHED2
 62
               4
100
AcDbLine
 10
1503.5017035408127
 20
-548.4613906359192
 30
0.0
 11
1578.5017035408127
 21
-548.4613906359192
 31
0.0
  0
LINE
  5
3BD
100
AcDbEntity
  8
0
  6
DASHED2
 62
               4
100
AcDbLine
 10
1578.5017035408127
 20
-548.4613906359192
 30
0.0
 11
1578.5017035408127
 21
-473.4613906359192
 31
0.0
  0
LINE
  5
3BE
100
AcDbEntity
  8
0
  6
DASHED2
 62
               4
100
AcDbLine
 10
1503.5017035408127
 20
-473.4613906359192
 30
0.0
 11
1503.5017035408127
 21
-548.4613906359192
 31
0.0
  0
LINE
  5
3BF
100
AcDbEntity
  8
0
  6
DASHED2
 62
               4
100
AcDbLine
 10
1503.5017035408127
 20
-855.46139063591932
 30
0.0
 11
1578.5017035408127
 21
-855.46139063591909
 31
0.0
  0
LINE
  5
3C0
100
AcDbEntity
  8
0
  6
DASHED2
 62
               4
100
AcDbLine
 10
1578.5017035408127
 20
-930.46139063591909
 30
0.0
 11
1503.5017035408127
 21
-930.46139063591932
 31
0.0
  0
LINE
  5
3C1
100
AcDbEntity
  8
0
  6
DASHED2
 62
               4
100
AcDbLine
 10
1503.5017035408127
 20
-930.46139063591932
 30
0.0
 11
1503.5017035408127
 21
-855.46139063591932
 31
0.0
  0
LINE
  5
3C2
100
AcDbEntity
  8
0
  6
DASHED2
 62
               4
100
AcDbLine
 10
1578.5017035408127
 20
-855.46139063591909
 30
0.0
 11
1578.5017035408127
 21
-930.46139063591909
 31
0.0
  0
LINE
  5
3C3
100
AcDbEntity
  8
LAYER032
  6
CONTINUOUS
 62
             150
100
AcDbLine
 10
-1066.5033553931135
 20
-394.96014000634557
 30
0.0
 11
-1066.5033553931135
 21
-397.96014000634557
 31
0.0
  0
LINE
  5
3C4
100
AcDbEntity
  8
LAYER032
  6
CONTINUOUS
 62
             150
100
AcDbLine
 10
-996.50335539311345
 20
-394.96014000634557
 30
0.0
 11
-1066.5033553931135
 21
-394.96014000634557
 31
0.0
  0
LINE
  5
3C5
100
AcDbEntity
  8
LAYER032
  6
CONTINUOUS
 62
             150
100
AcDbLine
 10
-1066.5033553931135
 20
-397.96014000634557
 30
0.0
 11
-996.50335539311345
 21
-397.96014000634557
 31
0.0
  0
LINE
  5
3C6
100
AcDbEntity
  8
LAYER032
  6
CONTINUOUS
 62
             150
100
AcDbLine
 10
-996.50335539311345
 20
-394.96014000634557
 30
0.0
 11
-996.50335539311345
 21
-397.96014000634557
 31
0.0
  0
CIRCLE
  5
3C7
100
AcDbEntity
  8
LAYER032
  6
CONTINUOUS
 62
             150
100
AcDbCircle
 10
-998.50335539311345
 20
-403.46014000634557
 30
0.0
 40
1.0
  0
LINE
  5
3C8
100
AcDbEntity
  8
LAYER032
  6
CONTINUOUS
 62
             150
100
AcDbLine
 10
-1000.5033553931135
 20
-397.96014000634557
 30
0.0
 11
-1000.5033553931135
 21
-403.46014000634557
 31
0.0
  0
ARC
  5
3C9
100
AcDbEntity
  8
LAYER032
  6
CONTINUOUS
 62
             150
100
AcDbCircle
 10
-998.50335539311345
 20
-403.46014000634557
 30
0.0
 40
2.0000000000000204
100
AcDbArc
 50
179.9999999999996
 51
359.9999999999992
  0
LINE
  5
3CA
100
AcDbEntity
  8
LAYER032
  6
CONTINUOUS
 62
             150
100
AcDbLine
 10
-996.50335539311345
 20
-397.96014000634557
 30
0.0
 11
-996.50335539311345
 21
-403.46014000634557
 31
0.0
  0
LINE
  5
3CB
100
AcDbEntity
  8
LAYER032
  6
CONTINUOUS
 62
             150
100
AcDbLine
 10
-1000.5033553931135
 20
-402.6601400063455
 30
0.0
 11
-1011.6033553931138
 21
-402.6601400063455
 31
0.0
  0
ARC
  5
3CC
100
AcDbEntity
  8
LAYER032
  6
CONTINUOUS
 62
             150
100
AcDbCircle
 10
-1014.0033553931135
 20
-404.46014000634557
 30
0.0
 40
3.0
100
AcDbArc
 50
228.18968510422104
 51
396.86989764584359
  0
LINE
  5
3CD
100
AcDbEntity
  8
LAYER032
  6
CONTINUOUS
 62
             150
100
AcDbLine
 10
-1000.5033553931135
 20
-401.46014000634557
 30
0.0
 11
-1014.0033553931135
 21
-401.46014000634557
 31
0.0
  0
LINE
  5
3CE
100
AcDbEntity
  8
LAYER032
  6
CONTINUOUS
 62
             150
100
AcDbLine
 10
-1017.0033553931135
 20
-404.46014000634557
 30
0.0
 11
-1017.0033553931135
 21
-415.46014000634557
 31
0.0
  0
LINE
  5
3CF
100
AcDbEntity
  8
LAYER032
  6
CONTINUOUS
 62
             150
100
AcDbLine
 10
-996.50335539311345
 20
-403.46014000634557
 30
0.0
 11
-996.50335539311345
 21
-415.46014000634557
 31
0.0
  0
LINE
  5
3D0
100
AcDbEntity
  8
LAYER032
  6
CONTINUOUS
 62
             150
100
AcDbLine
 10
-1014.0033553931135
 20
-418.46014000634557
 30
0.0
 11
-999.50335539311345
 21
-418.46014000634557
 31
0.0
  0
LINE
  5
3D1
100
AcDbEntity
  8
LAYER032
  6
CONTINUOUS
 62
             150
100
AcDbLine
 10
-1016.0033553931135
 20
-406.6962079838454
 30
0.0
 11
-1016.0033553931135
 21
-415.46014000634557
 31
0.0
  0
ARC
  5
3D2
100
AcDbEntity
  8
LAYER032
  6
CONTINUOUS
 62
             150
100
AcDbCircle
 10
-1014.0033553931135
 20
-415.46014000634557
 30
0.0
 40
2.0
100
AcDbArc
 50
179.9999999999996
 51
269.99999999999937
  0
ARC
  5
3D3
100
AcDbEntity
  8
LAYER032
  6
CONTINUOUS
 62
             150
100
AcDbCircle
 10
-1014.0033553931135
 20
-415.46014000634557
 30
0.0
 40
3.0
100
AcDbArc
 50
179.9999999999996
 51
269.99999999999937
  0
ARC
  5
3D4
100
AcDbEntity
  8
LAYER032
  6
CONTINUOUS
 62
             150
100
AcDbCircle
 10
-999.50335539311345
 20
-415.46014000634557
 30
0.0
 40
3.0
100
AcDbArc
 50
269.99999999999937
 51
359.9999999999992
  0
LINE
  5
3D5
100
AcDbEntity
  8
LAYER032
  6
CONTINUOUS
 62
             150
100
AcDbLine
 10
-1011.7859925123084
 20
-417.46014000634557
 30
0.0
 11
-1011.7859925123084
 21
-406.48085813340845
 31
0.0
  0
LINE
  5
3D6
100
AcDbEntity
  8
LAYER032
  6
CONTINUOUS
 62
             150
100
AcDbLine
 10
-1011.7859925123084
 20
-413.96014000634557
 30
0.0
 11
-1002.3719489287723
 21
-413.96014000634557
 31
0.0
  0
LINE
  5
3D7
100
AcDbEntity
  8
LAYER032
  6
CONTINUOUS
 62
             150
100
AcDbLine
 10
-1002.0033553931135
 20
-418.46014000634557
 30
0.0
 11
-1002.0033553931135
 21
-420.46014000634557
 31
0.0
  0
LINE
  5
3D8
100
AcDbEntity
  8
LAYER032
  6
CONTINUOUS
 62
             150
100
AcDbLine
 10
-1012.0033553931135
 20
-418.46014000634557
 30
0.0
 11
-1012.0033553931135
 21
-420.46014000634557
 31
0.0
  0
LINE
  5
3D9
100
AcDbEntity
  8
LAYER032
  6
CONTINUOUS
 62
             150
100
AcDbLine
 10
-1012.0033553931135
 20
-420.46014000634557
 30
0.0
 11
-1002.0033553931135
 21
-420.46014000634557
 31
0.0
  0
LINE
  5
3DA
100
AcDbEntity
  8
LAYER032
  6
CONTINUOUS
 62
             150
100
AcDbLine
 10
-985.20335539311418
 20
-402.71014000634557
 30
0.0
 11
-984.00335539311345
 21
-402.71014000634557
 31
0.0
  0
LINE
  5
3DB
100
AcDbEntity
  8
LAYER032
  6
CONTINUOUS
 62
             150
100
AcDbLine
 10
-984.00335539311345
 20
-402.71014000634557
 30
0.0
 11
-984.00335539311345
 21
-410.21014000634557
 31
0.0
  0
LINE
  5
3DC
100
AcDbEntity
  8
LAYER032
  6
CONTINUOUS
 62
             150
100
AcDbLine
 10
-985.20335539311418
 20
-402.71014000634557
 30
0.0
 11
-985.20335539311418
 21
-410.21014000634557
 31
0.0
  0
LINE
  5
3DD
100
AcDbEntity
  8
LAYER032
  6
CONTINUOUS
 62
             150
100
AcDbLine
 10
-984.00335539311345
 20
-410.21014000634557
 30
0.0
 11
-985.20335539311418
 21
-410.21014000634557
 31
0.0
  0
LINE
  5
3DE
100
AcDbEntity
  8
LAYER032
  6
CONTINUOUS
 62
             150
100
AcDbLine
 10
-985.20335539311418
 20
-403.71014000634557
 30
0.0
 11
-986.20335539311418
 21
-403.71014000634557
 31
0.0
  0
LINE
  5
3DF
100
AcDbEntity
  8
LAYER032
  6
CONTINUOUS
 62
             150
100
AcDbLine
 10
-986.20335539311418
 20
-409.21014000634557
 30
0.0
 11
-985.20335539311418
 21
-409.21014000634557
 31
0.0
  0
LINE
  5
3E0
100
AcDbEntity
  8
LAYER032
  6
CONTINUOUS
 62
             150
100
AcDbLine
 10
-987.20335539311418
 20
-402.46014000634557
 30
0.0
 11
-986.20335539311418
 21
-402.46014000634557
 31
0.0
  0
LINE
  5
3E1
100
AcDbEntity
  8
LAYER032
  6
CONTINUOUS
 62
             150
100
AcDbLine
 10
-987.20335539311418
 20
-410.46014000634557
 30
0.0
 11
-986.20335539311418
 21
-410.46014000634557
 31
0.0
  0
LINE
  5
3E2
100
AcDbEntity
  8
LAYER032
  6
CONTINUOUS
 62
             150
100
AcDbLine
 10
-986.20335539311418
 20
-402.46014000634557
 30
0.0
 11
-986.20335539311418
 21
-410.46014000634557
 31
0.0
  0
LINE
  5
3E3
100
AcDbEntity
  8
LAYER032
  6
CONTINUOUS
 62
             150
100
AcDbLine
 10
-987.20335539311418
 20
-402.46014000634557
 30
0.0
 11
-987.20335539311418
 21
-410.46014000634557
 31
0.0
  0
LINE
  5
3E4
100
AcDbEntity
  8
LAYER032
  6
CONTINUOUS
 62
             150
100
AcDbLine
 10
-989.70335539311418
 20
-402.36014000634555
 30
0.0
 11
-989.70335539311418
 21
-410.56014000634548
 31
0.0
  0
LINE
  5
3E5
100
AcDbEntity
  8
LAYER032
  6
CONTINUOUS
 62
             150
100
AcDbLine
 10
-989.70335539311418
 20
-402.36014000634555
 30
0.0
 11
-987.20335539311418
 21
-402.46014000634557
 31
0.0
  0
LINE
  5
3E6
100
AcDbEntity
  8
LAYER032
  6
CONTINUOUS
 62
             150
100
AcDbLine
 10
-989.70335539311418
 20
-410.56014000634548
 30
0.0
 11
-987.20335539311418
 21
-410.46014000634557
 31
0.0
  0
LINE
  5
3E7
100
AcDbEntity
  8
LAYER032
  6
CONTINUOUS
 62
             150
100
AcDbLine
 10
-985.20335539311418
 20
-410.71014000634557
 30
0.0
 11
-984.00335539311345
 21
-410.71014000634557
 31
0.0
  0
LINE
  5
3E8
100
AcDbEntity
  8
LAYER032
  6
CONTINUOUS
 62
             150
100
AcDbLine
 10
-984.00335539311345
 20
-410.71014000634557
 30
0.0
 11
-984.00335539311345
 21
-418.21014000634557
 31
0.0
  0
LINE
  5
3E9
100
AcDbEntity
  8
LAYER032
  6
CONTINUOUS
 62
             150
100
AcDbLine
 10
-985.20335539311418
 20
-410.71014000634557
 30
0.0
 11
-985.20335539311418
 21
-418.21014000634557
 31
0.0
  0
LINE
  5
3EA
100
AcDbEntity
  8
LAYER032
  6
CONTINUOUS
 62
             150
100
AcDbLine
 10
-984.00335539311345
 20
-418.21014000634557
 30
0.0
 11
-985.20335539311418
 21
-418.21014000634557
 31
0.0
  0
LINE
  5
3EB
100
AcDbEntity
  8
LAYER032
  6
CONTINUOUS
 62
             150
100
AcDbLine
 10
-985.20335539311418
 20
-411.71014000634557
 30
0.0
 11
-986.20335539311418
 21
-411.71014000634557
 31
0.0
  0
LINE
  5
3EC
100
AcDbEntity
  8
LAYER032
  6
CONTINUOUS
 62
             150
100
AcDbLine
 10
-986.20335539311418
 20
-417.21014000634557
 30
0.0
 11
-985.20335539311418
 21
-417.21014000634557
 31
0.0
  0
LINE
  5
3ED
100
AcDbEntity
  8
LAYER032
  6
CONTINUOUS
 62
             150
100
AcDbLine
 10
-987.20335539311418
 20
-418.46014000634557
 30
0.0
 11
-986.20335539311418
 21
-418.46014000634557
 31
0.0
  0
LINE
  5
3EE
100
AcDbEntity
  8
LAYER032
  6
CONTINUOUS
 62
             150
100
AcDbLine
 10
-986.20335539311418
 20
-410.46014000634557
 30
0.0
 11
-986.20335539311418
 21
-418.46014000634557
 31
0.0
  0
LINE
  5
3EF
100
AcDbEntity
  8
LAYER032
  6
CONTINUOUS
 62
             150
100
AcDbLine
 10
-987.20335539311418
 20
-410.46014000634557
 30
0.0
 11
-987.20335539311418
 21
-418.46014000634557
 31
0.0
  0
LINE
  5
3F0
100
AcDbEntity
  8
LAYER032
  6
CONTINUOUS
 62
             150
100
AcDbLine
 10
-989.70335539311418
 20
-410.36014000634555
 30
0.0
 11
-989.70335539311418
 21
-418.56014000634559
 31
0.0
  0
LINE
  5
3F1
100
AcDbEntity
  8
LAYER032
  6
CONTINUOUS
 62
             150
100
AcDbLine
 10
-989.70335539311418
 20
-410.36014000634555
 30
0.0
 11
-987.20335539311418
 21
-410.46014000634557
 31
0.0
  0
LINE
  5
3F2
100
AcDbEntity
  8
LAYER032
  6
CONTINUOUS
 62
             150
100
AcDbLine
 10
-989.70335539311418
 20
-418.56014000634559
 30
0.0
 11
-987.20335539311418
 21
-418.46014000634557
 31
0.0
  0
LINE
  5
3F3
100
AcDbEntity
  8
LAYER032
  6
CONTINUOUS
 62
             150
100
AcDbLine
 10
-993.20335539311418
 20
-420.71014000634557
 30
0.0
 11
-992.00335539311345
 21
-420.71014000634557
 31
0.0
  0
LINE
  5
3F4
100
AcDbEntity
  8
LAYER032
  6
CONTINUOUS
 62
             150
100
AcDbLine
 10
-992.00335539311345
 20
-420.71014000634557
 30
0.0
 11
-992.00335539311345
 21
-428.21014000634557
 31
0.0
  0
LINE
  5
3F5
100
AcDbEntity
  8
LAYER032
  6
CONTINUOUS
 62
             150
100
AcDbLine
 10
-993.20335539311418
 20
-420.71014000634557
 30
0.0
 11
-993.20335539311418
 21
-428.21014000634557
 31
0.0
  0
LINE
  5
3F6
100
AcDbEntity
  8
LAYER032
  6
CONTINUOUS
 62
             150
100
AcDbLine
 10
-992.00335539311345
 20
-428.21014000634557
 30
0.0
 11
-993.20335539311418
 21
-428.21014000634557
 31
0.0
  0
LINE
  5
3F7
100
AcDbEntity
  8
LAYER032
  6
CONTINUOUS
 62
             150
100
AcDbLine
 10
-993.20335539311418
 20
-421.71014000634557
 30
0.0
 11
-994.20335539311418
 21
-421.71014000634557
 31
0.0
  0
LINE
  5
3F8
100
AcDbEntity
  8
LAYER032
  6
CONTINUOUS
 62
             150
100
AcDbLine
 10
-994.20335539311418
 20
-427.21014000634557
 30
0.0
 11
-993.20335539311418
 21
-427.21014000634557
 31
0.0
  0
LINE
  5
3F9
100
AcDbEntity
  8
LAYER032
  6
CONTINUOUS
 62
             150
100
AcDbLine
 10
-995.20335539311418
 20
-420.46014000634557
 30
0.0
 11
-994.20335539311418
 21
-420.46014000634557
 31
0.0
  0
LINE
  5
3FA
100
AcDbEntity
  8
LAYER032
  6
CONTINUOUS
 62
             150
100
AcDbLine
 10
-995.20335539311418
 20
-428.46014000634557
 30
0.0
 11
-994.20335539311418
 21
-428.46014000634557
 31
0.0
  0
LINE
  5
3FB
100
AcDbEntity
  8
LAYER032
  6
CONTINUOUS
 62
             150
100
AcDbLine
 10
-994.20335539311418
 20
-420.46014000634557
 30
0.0
 11
-994.20335539311418
 21
-428.46014000634557
 31
0.0
  0
LINE
  5
3FC
100
AcDbEntity
  8
LAYER032
  6
CONTINUOUS
 62
             150
100
AcDbLine
 10
-995.20335539311418
 20
-420.46014000634557
 30
0.0
 11
-995.20335539311418
 21
-428.46014000634557
 31
0.0
  0
LINE
  5
3FD
100
AcDbEntity
  8
LAYER032
  6
CONTINUOUS
 62
             150
100
AcDbLine
 10
-997.70335539311418
 20
-420.36014000634555
 30
0.0
 11
-997.70335539311418
 21
-428.56014000634559
 31
0.0
  0
LINE
  5
3FE
100
AcDbEntity
  8
LAYER032
  6
CONTINUOUS
 62
             150
100
AcDbLine
 10
-997.70335539311418
 20
-420.36014000634555
 30
0.0
 11
-995.20335539311418
 21
-420.46014000634557
 31
0.0
  0
LINE
  5
3FF
100
AcDbEntity
  8
LAYER032
  6
CONTINUOUS
 62
             150
100
AcDbLine
 10
-997.70335539311418
 20
-428.56014000634559
 30
0.0
 11
-995.20335539311418
 21
-428.46014000634557
 31
0.0
  0
LINE
  5
400
100
AcDbEntity
  8
LAYER032
  6
CONTINUOUS
 62
             150
100
AcDbLine
 10
-996.50335539311345
 20
-402.46014000634591
 30
0.0
 11
-993.00335539311345
 21
-402.46014000634591
 31
0.0
  0
LINE
  5
401
100
AcDbEntity
  8
LAYER032
  6
CONTINUOUS
 62
             150
100
AcDbLine
 10
-996.50335539311345
 20
-401.46014000634591
 30
0.0
 11
-993.00335539311345
 21
-401.46014000634591
 31
0.0
  0
LINE
  5
402
100
AcDbEntity
  8
LAYER032
  6
CONTINUOUS
 62
             150
100
AcDbLine
 10
-993.00335539311345
 20
-401.46014000634591
 30
0.0
 11
-993.00335539311345
 21
-402.46014000634591
 31
0.0
  0
LINE
  5
403
100
AcDbEntity
  8
LAYER032
  6
CONTINUOUS
 62
             150
100
AcDbLine
 10
-989.70335539311418
 20
-418.56014000634559
 30
0.0
 11
-999.50335539311345
 21
-418.46014000634557
 31
0.0
  0
LINE
  5
404
100
AcDbEntity
  8
LAYER032
  6
CONTINUOUS
 62
             150
100
AcDbLine
 10
-989.70335539311418
 20
-402.36014000634555
 30
0.0
 11
-993.00335539311345
 21
-402.46014000634591
 31
0.0
  0
LINE
  5
405
100
AcDbEntity
  8
LAYER032
  6
CONTINUOUS
 62
             150
100
AcDbLine
 10
-1002.0033553931135
 20
-420.46014000634557
 30
0.0
 11
-997.70335539311418
 21
-420.36014000634555
 31
0.0
  0
LINE
  5
406
100
AcDbEntity
  8
LAYER032
  6
CONTINUOUS
 62
             150
100
AcDbLine
 10
-1001.7033553931142
 20
-420.45316326215948
 30
0.0
 11
-1001.7033553931142
 21
-428.56014000634559
 31
0.0
  0
LINE
  5
407
100
AcDbEntity
  8
LAYER032
  6
CONTINUOUS
 62
             150
100
AcDbLine
 10
-997.70335539311418
 20
-428.56014000634559
 30
0.0
 11
-1006.5033553931135
 21
-428.56014000634559
 31
0.0
  0
LINE
  5
408
100
AcDbEntity
  8
LAYER032
  6
CONTINUOUS
 62
             150
100
AcDbLine
 10
-1011.5033553931135
 20
-420.46014000634557
 30
0.0
 11
-1011.5033553931135
 21
-423.56014000634559
 31
0.0
  0
ARC
  5
409
100
AcDbEntity
  8
LAYER032
  6
CONTINUOUS
 62
             150
100
AcDbCircle
 10
-1006.5033553931135
 20
-423.56014000634559
 30
0.0
 40
5.0
100
AcDbArc
 50
179.9999999999996
 51
269.99999999999937
  0
LINE
  5
40A
100
AcDbEntity
  8
LAYER032
  6
CONTINUOUS
 62
             150
100
AcDbLine
 10
-1011.0033553931135
 20
-399.96014000634557
 30
0.0
 11
-1011.0033553931135
 21
-401.46014000634557
 31
0.0
  0
LINE
  5
40B
100
AcDbEntity
  8
LAYER032
  6
CONTINUOUS
 62
             150
100
AcDbLine
 10
-1011.0033553931135
 20
-399.96014000634557
 30
0.0
 11
-1003.0033553931135
 21
-399.96014000634557
 31
0.0
  0
LINE
  5
40C
100
AcDbEntity
  8
LAYER032
  6
CONTINUOUS
 62
             150
100
AcDbLine
 10
-1003.0033553931135
 20
-399.96014000634557
 30
0.0
 11
-1003.0033553931135
 21
-401.46014000634557
 31
0.0
  0
LINE
  5
40D
100
AcDbEntity
  8
LAYER032
  6
CONTINUOUS
 62
             150
100
AcDbLine
 10
-1005.6033553931138
 20
-399.96014000634557
 30
0.0
 11
-1005.6033553931138
 21
-397.96014000634557
 31
0.0
  0
LINE
  5
40E
100
AcDbEntity
  8
LAYER032
  6
CONTINUOUS
 62
             150
100
AcDbLine
 10
-1008.4033553931131
 20
-399.96014000634557
 30
0.0
 11
-1008.4033553931131
 21
-397.96014000634557
 31
0.0
  0
LINE
  5
40F
100
AcDbEntity
  8
LAYER032
  6
CONTINUOUS
 62
             150
100
AcDbLine
 10
-1002.3719489287723
 20
-414.08197650951092
 30
0.0
 11
-1002.3719489287723
 21
-402.6601400063455
 31
0.0
  0
LINE
  5
410
100
AcDbEntity
  8
LAYER032
  6
CONTINUOUS
 62
             150
100
AcDbLine
 10
-997.50335539311345
 20
-405.19219081391441
 30
0.0
 11
-997.50335539311345
 21
-412.72407202884574
 31
0.0
  0
ARC
  5
411
100
AcDbEntity
  8
LAYER032
  6
CONTINUOUS
 62
             150
100
AcDbCircle
 10
-999.50335539311345
 20
-414.96014000634557
 30
0.0
 40
3.0
100
AcDbArc
 50
48.189685104221432
 51
236.44269023807874
  0
LINE
  5
412
100
AcDbEntity
  8
LAYER032
  6
CONTINUOUS
 62
             150
100
AcDbLine
 10
-1014.0033553931135
 20
-417.46014000634557
 30
0.0
 11
-1001.1616677882921
 21
-417.46014000634557
 31
0.0
  0
LINE
  5
413
100
AcDbEntity
  8
LAYER032
  6
CONTINUOUS
 62
             150
100
AcDbLine
 10
-1001.5033553931135
 20
-401.46014000634557
 30
0.0
 11
-1001.5033553931135
 21
-402.6601400063455
 31
0.0
  0
LINE
  5
414
100
AcDbEntity
  8
LAYER032
  6
CONTINUOUS
 62
             150
100
AcDbLine
 10
-1014.0033553931135
 20
-401.46014000634557
 30
0.0
 11
-1007.0033553931135
 21
-401.46014000634557
 31
0.0
  0
LINE
  5
415
100
AcDbEntity
  8
LAYER032
  6
CONTINUOUS
 62
             150
100
AcDbLine
 10
-989.90541724878312
 20
-418.55807815067544
 30
0.0
 11
-985.00335539311345
 21
-423.46014000634557
 31
0.0
  0
ARC
  5
416
100
AcDbEntity
  8
LAYER032
  6
CONTINUOUS
 62
             150
100
AcDbCircle
 10
-1014.0033553931135
 20
-404.46014000634557
 30
0.0
 40
3.0
100
AcDbArc
 50
89.999999999999801
 51
179.9999999999996
  0
LINE
  5
417
100
AcDbEntity
  8
LAYER032
  6
CONTINUOUS
 62
             150
100
AcDbLine
 10
-1017.0033553931135
 20
-472.46014000634557
 30
0.0
 11
-1017.0033553931135
 21
-404.46014000634557
 31
0.0
  0
LINE
  5
418
100
AcDbEntity
  8
LAYER032
  6
CONTINUOUS
 62
             150
100
AcDbLine
 10
-985.00335539311345
 20
-472.46014000634557
 30
0.0
 11
-985.00335539311345
 21
-423.46014000634557
 31
0.0
  0
CIRCLE
  5
419
100
AcDbEntity
  8
LAYER032
  6
CONTINUOUS
 62
             150
100
AcDbCircle
 10
1111.0017035408127
 20
-723.71139063591659
 30
0.0
 40
21.0
  0
LINE
  5
41A
100
AcDbEntity
  8
LAYER032
  6
CONTINUOUS
 62
             150
100
AcDbLine
 10
1117.5017035408127
 20
-803.71139063591659
 30
0.0
 11
1104.5017035408127
 21
-803.71139063591659
 31
0.0
  0
LINE
  5
41B
100
AcDbEntity
  8
LAYER032
  6
CONTINUOUS
 62
             150
100
AcDbLine
 10
1117.5017035408127
 20
-809.71139063591659
 30
0.0
 11
1104.5017035408127
 21
-809.71139063591659
 31
0.0
  0
ARC
  5
41C
100
AcDbEntity
  8
LAYER032
  6
CONTINUOUS
 62
             150
100
AcDbCircle
 10
1117.5017035408127
 20
-793.71139063591659
 30
0.0
 40
10.0
100
AcDbArc
 50
269.99999999999937
 51
359.9999999999992
  0
ARC
  5
41D
100
AcDbEntity
  8
LAYER032
  6
CONTINUOUS
 62
             150
100
AcDbCircle
 10
1104.5017035408127
 20
-793.71139063591659
 30
0.0
 40
10.0
100
AcDbArc
 50
179.99999999999957
 51
269.99999999999937
  0
LINE
  5
41E
100
AcDbEntity
  8
LAYER032
  6
CONTINUOUS
 62
             150
100
AcDbLine
 10
1117.5017035408127
 20
-803.71139063591659
 30
0.0
 11
1117.5017035408127
 21
-809.71139063591659
 31
0.0
  0
LINE
  5
41F
100
AcDbEntity
  8
LAYER032
  6
CONTINUOUS
 62
             150
100
AcDbLine
 10
1104.5017035408127
 20
-803.71139063591659
 30
0.0
 11
1104.5017035408127
 21
-809.71139063591659
 31
0.0
  0
LINE
  5
420
100
AcDbEntity
  8
LAYER032
  6
CONTINUOUS
 62
             150
100
AcDbLine
 10
1127.5017035408127
 20
-747.7113906359167
 30
0.0
 11
1127.5017035408127
 21
-793.71139063591659
 31
0.0
  0
LINE
  5
421
100
AcDbEntity
  8
LAYER032
  6
CONTINUOUS
 62
             150
100
AcDbLine
 10
1094.5017035408127
 20
-747.71139063591659
 30
0.0
 11
1094.5017035408127
 21
-793.71139063591659
 31
0.0
  0
LINE
  5
422
100
AcDbEntity
  8
LAYER032
  6
CONTINUOUS
 62
             150
100
AcDbLine
 10
1130.5017035408127
 20
-747.7113906359167
 30
0.0
 11
1091.5017035408127
 21
-747.71139063591659
 31
0.0
  0
LINE
  5
423
100
AcDbEntity
  8
LAYER032
  6
CONTINUOUS
 62
             150
100
AcDbLine
 10
1091.5017035408127
 20
-747.71139063591659
 30
0.0
 11
1091.5017035408127
 21
-731.50561926997648
 31
0.0
  0
LINE
  5
424
100
AcDbEntity
  8
LAYER032
  6
CONTINUOUS
 62
             150
100
AcDbLine
 10
1130.5017035408127
 20
-731.50561926997659
 30
0.0
 11
1130.5017035408127
 21
-747.7113906359167
 31
0.0
  0
LINE
  5
425
100
AcDbEntity
  8
LAYER032
  6
CONTINUOUS
 62
             150
100
AcDbLine
 10
1112.0017035408127
 20
-810.71139063591659
 30
0.0
 11
1112.0017035408127
 21
-811.71139063591659
 31
0.0
  0
LINE
  5
426
100
AcDbEntity
  8
LAYER032
  6
CONTINUOUS
 62
             150
100
AcDbLine
 10
1111.5017035408127
 20
-809.71139063591659
 30
0.0
 11
1111.5017035408127
 21
-810.71139063591659
 31
0.0
  0
LINE
  5
427
100
AcDbEntity
  8
LAYER032
  6
CONTINUOUS
 62
             150
100
AcDbLine
 10
1110.5017035408127
 20
-810.71139063591659
 30
0.0
 11
1110.5017035408127
 21
-809.71139063591659
 31
0.0
  0
LINE
  5
428
100
AcDbEntity
  8
LAYER032
  6
CONTINUOUS
 62
             150
100
AcDbLine
 10
1112.0017035408127
 20
-810.71139063591659
 30
0.0
 11
1110.0017035408127
 21
-810.71139063591659
 31
0.0
  0
LINE
  5
429
100
AcDbEntity
  8
LAYER032
  6
CONTINUOUS
 62
             150
100
AcDbLine
 10
1110.0017035408127
 20
-811.71139063591659
 30
0.0
 11
1110.0017035408127
 21
-810.71139063591659
 31
0.0
  0
LINE
  5
42A
100
AcDbEntity
  8
LAYER032
  6
CONTINUOUS
 62
             150
100
AcDbLine
 10
1112.0017035408127
 20
-811.71139063591659
 30
0.0
 11
1110.0017035408127
 21
-811.71139063591659
 31
0.0
  0
LINE
  5
42B
100
AcDbEntity
  8
LAYER032
  6
CONTINUOUS
 62
             150
100
AcDbLine
 10
1125.0017035408127
 20
-662.7113906359167
 30
0.0
 11
1097.0017035408127
 21
-662.71139063591659
 31
0.0
  0
LINE
  5
42C
100
AcDbEntity
  8
LAYER032
  6
CONTINUOUS
 62
             150
100
AcDbLine
 10
1097.0017035408127
 20
-687.71139063591659
 30
0.0
 11
1097.0017035408127
 21
-662.71139063591659
 31
0.0
  0
LINE
  5
42D
100
AcDbEntity
  8
LAYER032
  6
CONTINUOUS
 62
             150
100
AcDbLine
 10
1125.0017035408127
 20
-687.7113906359167
 30
0.0
 11
1097.0017035408127
 21
-687.71139063591659
 31
0.0
  0
LINE
  5
42E
100
AcDbEntity
  8
LAYER032
  6
CONTINUOUS
 62
             150
100
AcDbLine
 10
1125.0017035408127
 20
-662.7113906359167
 30
0.0
 11
1125.0017035408127
 21
-687.7113906359167
 31
0.0
  0
LINE
  5
42F
100
AcDbEntity
  8
LAYER032
  6
CONTINUOUS
 62
             150
100
AcDbLine
 10
1122.5017035408127
 20
-687.7113906359167
 30
0.0
 11
1122.5017035408127
 21
-691.2113906359167
 31
0.0
  0
LINE
  5
430
100
AcDbEntity
  8
LAYER032
  6
CONTINUOUS
 62
             150
100
AcDbLine
 10
1099.5017035408127
 20
-691.21139063591659
 30
0.0
 11
1099.5017035408127
 21
-687.71139063591659
 31
0.0
  0
LINE
  5
431
100
AcDbEntity
  8
LAYER032
  6
CONTINUOUS
 62
             150
100
AcDbLine
 10
1130.5017035408127
 20
-691.2113906359167
 30
0.0
 11
1091.5017035408127
 21
-691.21139063591659
 31
0.0
  0
LINE
  5
432
100
AcDbEntity
  8
LAYER032
  6
CONTINUOUS
 62
             150
100
AcDbLine
 10
1133.0017035408127
 20
-679.7113906359167
 30
0.0
 11
1125.0017035408127
 21
-679.7113906359167
 31
0.0
  0
LINE
  5
433
100
AcDbEntity
  8
LAYER032
  6
CONTINUOUS
 62
             150
100
AcDbLine
 10
1097.0017035408127
 20
-679.71139063591659
 30
0.0
 11
1089.0017035408127
 21
-679.71139063591659
 31
0.0
  0
ARC
  5
434
100
AcDbEntity
  8
LAYER032
  6
CONTINUOUS
 62
             150
100
AcDbCircle
 10
1133.0017035408127
 20
-682.7113906359167
 30
0.0
 40
3.0
100
AcDbArc
 50
359.9999999999992
 51
449.99999999999898
  0
ARC
  5
435
100
AcDbEntity
  8
LAYER032
  6
CONTINUOUS
 62
             150
100
AcDbCircle
 10
1089.0017035408127
 20
-682.71139063591659
 30
0.0
 40
3.0
100
AcDbArc
 50
89.999999999999787
 51
179.9999999999996
  0
LINE
  5
436
100
AcDbEntity
  8
LAYER032
  6
CONTINUOUS
 62
             150
100
AcDbLine
 10
1136.0017035408127
 20
-682.7113906359167
 30
0.0
 11
1136.0017035408127
 21
-699.7113906359167
 31
0.0
  0
LINE
  5
437
100
AcDbEntity
  8
LAYER032
  6
CONTINUOUS
 62
             150
100
AcDbLine
 10
1086.0017035408127
 20
-682.71139063591659
 30
0.0
 11
1086.0017035408127
 21
-699.7113906359167
 31
0.0
  0
LINE
  5
438
100
AcDbEntity
  8
LAYER032
  6
CONTINUOUS
 62
             150
100
AcDbLine
 10
1136.0017035408127
 20
-699.7113906359167
 30
0.0
 11
1086.0017035408127
 21
-699.7113906359167
 31
0.0
  0
LINE
  5
439
100
AcDbEntity
  8
LAYER032
  6
CONTINUOUS
 62
             150
100
AcDbLine
 10
1136.0017035408127
 20
-698.2113906359167
 30
0.0
 11
1086.0017035408127
 21
-698.2113906359167
 31
0.0
  0
LINE
  5
43A
100
AcDbEntity
  8
LAYER032
  6
CONTINUOUS
 62
             150
100
AcDbLine
 10
1150.0017035408127
 20
-733.2113906359167
 30
0.0
 11
1178.0017035408127
 21
-733.2113906359167
 31
0.0
  0
LINE
  5
43B
100
AcDbEntity
  8
LAYER032
  6
CONTINUOUS
 62
             150
100
AcDbLine
 10
1152.5017035408127
 20
-730.7113906359167
 30
0.0
 11
1175.5017035408127
 21
-730.7113906359167
 31
0.0
  0
CIRCLE
  5
43C
100
AcDbEntity
  8
LAYER032
  6
CONTINUOUS
 62
             150
100
AcDbCircle
 10
1155.5017035408127
 20
-717.2113906359167
 30
0.0
 40
3.0
  0
CIRCLE
  5
43D
100
AcDbEntity
  8
LAYER032
  6
CONTINUOUS
 62
             150
100
AcDbCircle
 10
1172.5017035408127
 20
-717.2113906359167
 30
0.0
 40
3.0
  0
CIRCLE
  5
43E
100
AcDbEntity
  8
LAYER032
  6
CONTINUOUS
 62
             150
100
AcDbCircle
 10
1155.5017035408127
 20
-717.2113906359167
 30
0.0
 40
2.0
  0
CIRCLE
  5
43F
100
AcDbEntity
  8
LAYER032
  6
CONTINUOUS
 62
             150
100
AcDbCircle
 10
1172.5017035408127
 20
-717.2113906359167
 30
0.0
 40
2.0
  0
LINE
  5
440
100
AcDbEntity
  8
LAYER032
  6
CONTINUOUS
 62
             150
100
AcDbLine
 10
1158.5017035408127
 20
-716.7113906359167
 30
0.0
 11
1169.5017035408127
 21
-716.7113906359167
 31
0.0
  0
LINE
  5
441
100
AcDbEntity
  8
LAYER032
  6
CONTINUOUS
 62
             150
100
AcDbLine
 10
1175.5017035408127
 20
-716.71139063591579
 30
0.0
 11
1178.0017035408127
 21
-716.71139063591579
 31
0.0
  0
LINE
  5
442
100
AcDbEntity
  8
LAYER032
  6
CONTINUOUS
 62
             150
100
AcDbLine
 10
1178.0017035408127
 20
-733.2113906359167
 30
0.0
 11
1178.0017035408127
 21
-716.71139063591579
 31
0.0
  0
LINE
  5
443
100
AcDbEntity
  8
LAYER032
  6
CONTINUOUS
 62
             150
100
AcDbLine
 10
1175.5017035408127
 20
-716.71139063591579
 30
0.0
 11
1175.5017035408127
 21
-730.7113906359167
 31
0.0
  0
LINE
  5
444
100
AcDbEntity
  8
LAYER032
  6
CONTINUOUS
 62
             150
100
AcDbLine
 10
1152.5017035408127
 20
-716.71139063591579
 30
0.0
 11
1150.0017035408127
 21
-716.71139063591579
 31
0.0
  0
LINE
  5
445
100
AcDbEntity
  8
LAYER032
  6
CONTINUOUS
 62
             150
100
AcDbLine
 10
1150.0017035408127
 20
-716.71139063591579
 30
0.0
 11
1150.0017035408127
 21
-733.2113906359167
 31
0.0
  0
LINE
  5
446
100
AcDbEntity
  8
LAYER032
  6
CONTINUOUS
 62
             150
100
AcDbLine
 10
1152.5017035408127
 20
-716.71139063591579
 30
0.0
 11
1152.5017035408127
 21
-730.7113906359167
 31
0.0
  0
LINE
  5
447
100
AcDbEntity
  8
LAYER032
  6
CONTINUOUS
 62
             150
100
AcDbLine
 10
1172.5017035408127
 20
-714.2113906359167
 30
0.0
 11
1155.5017035408127
 21
-714.2113906359167
 31
0.0
  0
LINE
  5
448
100
AcDbEntity
  8
LAYER032
  6
CONTINUOUS
 62
             150
100
AcDbLine
 10
1169.5017035408127
 20
-733.2113906359167
 30
0.0
 11
1169.5017035408127
 21
-736.2113906359167
 31
0.0
  0
LINE
  5
449
100
AcDbEntity
  8
LAYER032
  6
CONTINUOUS
 62
             150
100
AcDbLine
 10
1158.5017035408127
 20
-736.2113906359167
 30
0.0
 11
1169.5017035408127
 21
-736.2113906359167
 31
0.0
  0
LINE
  5
44A
100
AcDbEntity
  8
LAYER032
  6
CONTINUOUS
 62
             150
100
AcDbLine
 10
1158.5017035408127
 20
-733.2113906359167
 30
0.0
 11
1158.5017035408127
 21
-736.2113906359167
 31
0.0
  0
LINE
  5
44B
100
AcDbEntity
  8
LAYER032
  6
CONTINUOUS
 62
             150
100
AcDbLine
 10
1178.0017035408127
 20
-717.2113906359167
 30
0.0
 11
1186.0017035408127
 21
-717.2113906359167
 31
0.0
  0
LINE
  5
44C
100
AcDbEntity
  8
LAYER032
  6
CONTINUOUS
 62
             150
100
AcDbLine
 10
1186.0017035408127
 20
-717.2113906359167
 30
0.0
 11
1186.0017035408127
 21
-730.2113906359167
 31
0.0
  0
LINE
  5
44D
100
AcDbEntity
  8
LAYER032
  6
CONTINUOUS
 62
             150
100
AcDbLine
 10
1178.0017035408127
 20
-730.2113906359167
 30
0.0
 11
1186.0017035408127
 21
-730.2113906359167
 31
0.0
  0
LINE
  5
44E
100
AcDbEntity
  8
LAYER032
  6
CONTINUOUS
 62
             150
100
AcDbLine
 10
1190.0017035408127
 20
-729.7113906359167
 30
0.0
 11
1188.5017035408127
 21
-729.7113906359167
 31
0.0
  0
LINE
  5
44F
100
AcDbEntity
  8
LAYER032
  6
CONTINUOUS
 62
             150
100
AcDbLine
 10
1190.0017035408127
 20
-717.7113906359167
 30
0.0
 11
1190.0017035408127
 21
-729.7113906359167
 31
0.0
  0
LINE
  5
450
100
AcDbEntity
  8
LAYER032
  6
CONTINUOUS
 62
             150
100
AcDbLine
 10
1188.5017035408127
 20
-717.7113906359167
 30
0.0
 11
1188.5017035408127
 21
-729.7113906359167
 31
0.0
  0
LINE
  5
451
100
AcDbEntity
  8
LAYER032
  6
CONTINUOUS
 62
             150
100
AcDbLine
 10
1188.5017035408127
 20
-717.7113906359167
 30
0.0
 11
1190.0017035408127
 21
-717.7113906359167
 31
0.0
  0
LINE
  5
452
100
AcDbEntity
  8
LAYER032
  6
CONTINUOUS
 62
             150
100
AcDbLine
 10
1186.0017035408127
 20
-718.7113906359167
 30
0.0
 11
1187.5017035408127
 21
-718.7113906359167
 31
0.0
  0
LINE
  5
453
100
AcDbEntity
  8
LAYER032
  6
CONTINUOUS
 62
             150
100
AcDbLine
 10
1187.5017035408127
 20
-728.7113906359167
 30
0.0
 11
1186.0017035408127
 21
-728.7113906359167
 31
0.0
  0
LINE
  5
454
100
AcDbEntity
  8
LAYER032
  6
CONTINUOUS
 62
             150
100
AcDbLine
 10
1187.5017035408127
 20
-718.7113906359167
 30
0.0
 11
1187.5017035408127
 21
-728.7113906359167
 31
0.0
  0
LINE
  5
455
100
AcDbEntity
  8
LAYER032
  6
CONTINUOUS
 62
             150
100
AcDbLine
 10
1187.5017035408127
 20
-719.7113906359167
 30
0.0
 11
1188.5017035408127
 21
-719.7113906359167
 31
0.0
  0
LINE
  5
456
100
AcDbEntity
  8
LAYER032
  6
CONTINUOUS
 62
             150
100
AcDbLine
 10
1187.5017035408127
 20
-727.7113906359167
 30
0.0
 11
1188.5017035408127
 21
-727.7113906359167
 31
0.0
  0
LINE
  5
457
100
AcDbEntity
  8
LAYER032
  6
CONTINUOUS
 62
             150
100
AcDbLine
 10
1187.0017035408127
 20
-718.7113906359167
 30
0.0
 11
1187.0017035408127
 21
-728.7113906359167
 31
0.0
  0
LINE
  5
458
100
AcDbEntity
  8
LAYER032
  6
CONTINUOUS
 62
             150
100
AcDbLine
 10
1161.5017035408127
 20
-695.2113906359167
 30
0.0
 11
1166.5017035408127
 21
-695.2113906359167
 31
0.0
  0
LINE
  5
459
100
AcDbEntity
  8
LAYER032
  6
CONTINUOUS
 62
             150
100
AcDbLine
 10
1161.5017035408127
 20
-695.2113906359167
 30
0.0
 11
1161.5017035408127
 21
-705.2113906359167
 31
0.0
  0
LINE
  5
45A
100
AcDbEntity
  8
LAYER032
  6
CONTINUOUS
 62
             150
100
AcDbLine
 10
1166.5017035408127
 20
-695.2113906359167
 30
0.0
 11
1166.5017035408127
 21
-705.2113906359167
 31
0.0
  0
LINE
  5
45B
100
AcDbEntity
  8
LAYER032
  6
CONTINUOUS
 62
             150
100
AcDbLine
 10
1170.0017035408127
 20
-705.2113906359167
 30
0.0
 11
1170.0017035408127
 21
-710.2113906359167
 31
0.0
  0
LINE
  5
45C
100
AcDbEntity
  8
LAYER032
  6
CONTINUOUS
 62
             150
100
AcDbLine
 10
1158.0017035408127
 20
-705.2113906359167
 30
0.0
 11
1158.0017035408127
 21
-710.2113906359167
 31
0.0
  0
LINE
  5
45D
100
AcDbEntity
  8
LAYER032
  6
CONTINUOUS
 62
             150
100
AcDbLine
 10
1158.0017035408127
 20
-705.2113906359167
 30
0.0
 11
1170.0017035408127
 21
-705.2113906359167
 31
0.0
  0
LINE
  5
45E
100
AcDbEntity
  8
LAYER032
  6
CONTINUOUS
 62
             150
100
AcDbLine
 10
1156.0017035408127
 20
-710.2113906359167
 30
0.0
 11
1172.0017035408127
 21
-710.2113906359167
 31
0.0
  0
LINE
  5
45F
100
AcDbEntity
  8
LAYER032
  6
CONTINUOUS
 62
             150
100
AcDbLine
 10
1172.0017035408127
 20
-710.2113906359167
 30
0.0
 11
1172.0017035408127
 21
-714.2113906359167
 31
0.0
  0
LINE
  5
460
100
AcDbEntity
  8
LAYER032
  6
CONTINUOUS
 62
             150
100
AcDbLine
 10
1156.0017035408127
 20
-710.2113906359167
 30
0.0
 11
1156.0017035408127
 21
-714.2113906359167
 31
0.0
  0
LINE
  5
461
100
AcDbEntity
  8
LAYER032
  6
CONTINUOUS
 62
             150
100
AcDbLine
 10
1150.0017035408127
 20
-717.21139063591772
 30
0.0
 11
1143.5017035408127
 21
-717.21139063591772
 31
0.0
  0
LINE
  5
462
100
AcDbEntity
  8
LAYER032
  6
CONTINUOUS
 62
             150
100
AcDbLine
 10
1143.5017035408127
 20
-717.21139063591772
 30
0.0
 11
1143.5017035408127
 21
-730.21139063591772
 31
0.0
  0
LINE
  5
463
100
AcDbEntity
  8
LAYER032
  6
CONTINUOUS
 62
             150
100
AcDbLine
 10
1150.0017035408127
 20
-730.21139063591772
 30
0.0
 11
1143.5017035408127
 21
-730.21139063591772
 31
0.0
  0
LINE
  5
464
100
AcDbEntity
  8
LAYER032
  6
CONTINUOUS
 62
             150
100
AcDbLine
 10
1140.5017035408127
 20
-730.7113906359167
 30
0.0
 11
1137.5017035408127
 21
-730.7113906359167
 31
0.0
  0
LINE
  5
465
100
AcDbEntity
  8
LAYER032
  6
CONTINUOUS
 62
             150
100
AcDbLine
 10
1140.5017035408127
 20
-716.7113906359167
 30
0.0
 11
1140.5017035408127
 21
-730.7113906359167
 31
0.0
  0
LINE
  5
466
100
AcDbEntity
  8
LAYER032
  6
CONTINUOUS
 62
             150
100
AcDbLine
 10
1137.5017035408127
 20
-716.7113906359167
 30
0.0
 11
1137.5017035408127
 21
-730.7113906359167
 31
0.0
  0
LINE
  5
467
100
AcDbEntity
  8
LAYER032
  6
CONTINUOUS
 62
             150
100
AcDbLine
 10
1140.5017035408127
 20
-716.7113906359167
 30
0.0
 11
1137.5017035408127
 21
-716.7113906359167
 31
0.0
  0
LINE
  5
468
100
AcDbEntity
  8
LAYER032
  6
CONTINUOUS
 62
             150
100
AcDbLine
 10
1137.5017035408127
 20
-717.7113906359167
 30
0.0
 11
1131.1263153383115
 21
-717.7113906359167
 31
0.0
  0
LINE
  5
469
100
AcDbEntity
  8
LAYER032
  6
CONTINUOUS
 62
             150
100
AcDbLine
 10
1137.5017035408127
 20
-729.7113906359167
 30
0.0
 11
1131.1263153383115
 21
-729.7113906359167
 31
0.0
  0
LINE
  5
46A
100
AcDbEntity
  8
LAYER032
  6
CONTINUOUS
 62
             150
100
AcDbLine
 10
1081.5017035408127
 20
-730.7113906359167
 30
0.0
 11
1084.5017035408127
 21
-730.7113906359167
 31
0.0
  0
LINE
  5
46B
100
AcDbEntity
  8
LAYER032
  6
CONTINUOUS
 62
             150
100
AcDbLine
 10
1081.5017035408127
 20
-716.7113906359167
 30
0.0
 11
1081.5017035408127
 21
-730.7113906359167
 31
0.0
  0
LINE
  5
46C
100
AcDbEntity
  8
LAYER032
  6
CONTINUOUS
 62
             150
100
AcDbLine
 10
1084.5017035408127
 20
-716.7113906359167
 30
0.0
 11
1084.5017035408127
 21
-730.7113906359167
 31
0.0
  0
LINE
  5
46D
100
AcDbEntity
  8
LAYER032
  6
CONTINUOUS
 62
             150
100
AcDbLine
 10
1081.5017035408127
 20
-716.7113906359167
 30
0.0
 11
1084.5017035408127
 21
-716.7113906359167
 31
0.0
  0
LINE
  5
46E
100
AcDbEntity
  8
LAYER032
  6
CONTINUOUS
 62
             150
100
AcDbLine
 10
1084.5017035408127
 20
-717.7113906359167
 30
0.0
 11
1090.8770917433158
 21
-717.7113906359167
 31
0.0
  0
LINE
  5
46F
100
AcDbEntity
  8
LAYER032
  6
CONTINUOUS
 62
             150
100
AcDbLine
 10
1084.5017035408127
 20
-729.7113906359167
 30
0.0
 11
1090.8770917433158
 21
-729.7113906359167
 31
0.0
  0
LINE
  5
470
100
AcDbEntity
  8
LAYER032
  6
CONTINUOUS
 62
             150
100
AcDbLine
 10
1143.5017035408127
 20
-728.7113906359167
 30
0.0
 11
1140.5017035408127
 21
-728.7113906359167
 31
0.0
  0
LINE
  5
471
100
AcDbEntity
  8
LAYER032
  6
CONTINUOUS
 62
             150
100
AcDbLine
 10
1143.5017035408127
 20
-718.7113906359167
 30
0.0
 11
1140.5017035408127
 21
-718.7113906359167
 31
0.0
  0
LINE
  5
472
100
AcDbEntity
  8
LAYER032
  6
CONTINUOUS
 62
             150
100
AcDbLine
 10
1077.5017035408127
 20
-717.71139063591681
 30
0.0
 11
1079.0017035408127
 21
-717.71139063591681
 31
0.0
  0
LINE
  5
473
100
AcDbEntity
  8
LAYER032
  6
CONTINUOUS
 62
             150
100
AcDbLine
 10
1077.5017035408127
 20
-729.71139063591681
 30
0.0
 11
1077.5017035408127
 21
-717.71139063591681
 31
0.0
  0
LINE
  5
474
100
AcDbEntity
  8
LAYER032
  6
CONTINUOUS
 62
             150
100
AcDbLine
 10
1079.0017035408127
 20
-729.71139063591681
 30
0.0
 11
1079.0017035408127
 21
-717.71139063591681
 31
0.0
  0
LINE
  5
475
100
AcDbEntity
  8
LAYER032
  6
CONTINUOUS
 62
             150
100
AcDbLine
 10
1079.0017035408127
 20
-729.71139063591681
 30
0.0
 11
1077.5017035408127
 21
-729.71139063591681
 31
0.0
  0
LINE
  5
476
100
AcDbEntity
  8
LAYER032
  6
CONTINUOUS
 62
             150
100
AcDbLine
 10
1081.5017035408127
 20
-728.71139063591681
 30
0.0
 11
1080.0017035408127
 21
-728.71139063591681
 31
0.0
  0
LINE
  5
477
100
AcDbEntity
  8
LAYER032
  6
CONTINUOUS
 62
             150
100
AcDbLine
 10
1080.0017035408127
 20
-718.71139063591681
 30
0.0
 11
1081.5017035408127
 21
-718.71139063591681
 31
0.0
  0
LINE
  5
478
100
AcDbEntity
  8
LAYER032
  6
CONTINUOUS
 62
             150
100
AcDbLine
 10
1080.0017035408127
 20
-728.71139063591681
 30
0.0
 11
1080.0017035408127
 21
-718.71139063591681
 31
0.0
  0
LINE
  5
479
100
AcDbEntity
  8
LAYER032
  6
CONTINUOUS
 62
             150
100
AcDbLine
 10
1080.0017035408127
 20
-727.71139063591681
 30
0.0
 11
1079.0017035408127
 21
-727.71139063591681
 31
0.0
  0
LINE
  5
47A
100
AcDbEntity
  8
LAYER032
  6
CONTINUOUS
 62
             150
100
AcDbLine
 10
1080.0017035408127
 20
-719.71139063591681
 30
0.0
 11
1079.0017035408127
 21
-719.71139063591681
 31
0.0
  0
LINE
  5
47B
100
AcDbEntity
  8
LAYER032
  6
CONTINUOUS
 62
             150
100
AcDbLine
 10
1080.5017035408127
 20
-728.71139063591681
 30
0.0
 11
1080.5017035408127
 21
-718.71139063591681
 31
0.0
  0
LINE
  5
47C
100
AcDbEntity
  8
LAYER032
  6
CONTINUOUS
 62
             150
100
AcDbLine
 10
1130.5017035408127
 20
-691.2113906359167
 30
0.0
 11
1130.5017035408127
 21
-698.2113906359167
 31
0.0
  0
LINE
  5
47D
100
AcDbEntity
  8
LAYER032
  6
CONTINUOUS
 62
             150
100
AcDbLine
 10
1130.5017035408127
 20
-699.7113906359167
 30
0.0
 11
1130.5017035408127
 21
-715.91716200185681
 31
0.0
  0
LINE
  5
47E
100
AcDbEntity
  8
LAYER032
  6
CONTINUOUS
 62
             150
100
AcDbLine
 10
1091.5017035408127
 20
-715.9171620018567
 30
0.0
 11
1091.5017035408127
 21
-699.7113906359167
 31
0.0
  0
LINE
  5
47F
100
AcDbEntity
  8
LAYER032
  6
CONTINUOUS
 62
             150
100
AcDbLine
 10
1091.5017035408127
 20
-698.2113906359167
 30
0.0
 11
1091.5017035408127
 21
-691.21139063591659
 31
0.0
  0
LINE
  5
480
100
AcDbEntity
  8
LAYER032
  6
CONTINUOUS
 62
             150
100
AcDbLine
 10
1093.0017035408127
 20
-682.21139063591659
 30
0.0
 11
1095.0017035408127
 21
-682.21139063591659
 31
0.0
  0
LINE
  5
481
100
AcDbEntity
  8
LAYER032
  6
CONTINUOUS
 62
             150
100
AcDbLine
 10
1093.0017035408127
 20
-688.71139063591659
 30
0.0
 11
1095.0017035408127
 21
-688.71139063591659
 31
0.0
  0
ARC
  5
482
100
AcDbEntity
  8
LAYER032
  6
CONTINUOUS
 62
             150
100
AcDbCircle
 10
1093.0017035408127
 20
-685.46139063591659
 30
0.0
 40
3.25
100
AcDbArc
 50
89.999999999999801
 51
269.99999999999937
  0
ARC
  5
483
100
AcDbEntity
  8
LAYER032
  6
CONTINUOUS
 62
             150
100
AcDbCircle
 10
1095.0017035408127
 20
-685.46139063591659
 30
0.0
 40
3.25
100
AcDbArc
 50
52.020127555147923
 51
89.999999999999801
  0
ARC
  5
484
100
AcDbEntity
  8
LAYER032
  6
CONTINUOUS
 62
             150
100
AcDbCircle
 10
1095.0017035408127
 20
-685.46139063591659
 30
0.0
 40
3.25
100
AcDbArc
 50
269.99999999999937
 51
316.1869385395961
  0
LINE
  5
485
100
AcDbEntity
  8
LAYER032
  6
CONTINUOUS
 62
             150
100
AcDbLine
 10
1129.0017035408127
 20
-682.21139063591659
 30
0.0
 11
1127.0017035408127
 21
-682.21139063591659
 31
0.0
  0
LINE
  5
486
100
AcDbEntity
  8
LAYER032
  6
CONTINUOUS
 62
             150
100
AcDbLine
 10
1129.0017035408127
 20
-688.71139063591659
 30
0.0
 11
1127.0017035408127
 21
-688.71139063591659
 31
0.0
  0
ARC
  5
487
100
AcDbEntity
  8
LAYER032
  6
CONTINUOUS
 62
             150
100
AcDbCircle
 10
1129.0017035408127
 20
-685.46139063591659
 30
0.0
 40
3.25
100
AcDbArc
 50
269.99999999999937
 51
449.99999999999898
  0
ARC
  5
488
100
AcDbEntity
  8
LAYER032
  6
CONTINUOUS
 62
             150
100
AcDbCircle
 10
1127.0017035408127
 20
-685.46139063591659
 30
0.0
 40
3.25
100
AcDbArc
 50
89.999999999999815
 51
127.97987244485167
  0
ARC
  5
489
100
AcDbEntity
  8
LAYER032
  6
CONTINUOUS
 62
             150
100
AcDbCircle
 10
1127.0017035408127
 20
-685.46139063591659
 30
0.0
 40
3.25
100
AcDbArc
 50
223.81306146040268
 51
269.99999999999937
  0
LINE
  5
48A
100
AcDbEntity
  8
LAYER032
  6
CONTINUOUS
 62
             232
100
AcDbLine
 10
1086.0017035408127
 20
-855.46139063591932
 30
0.0
 11
1136.0017035408127
 21
-855.46139063591932
 31
0.0
  0
ARC
  5
48B
100
AcDbEntity
  8
LAYER032
  6
CONTINUOUS
 62
             232
100
AcDbCircle
 10
1089.0017035408127
 20
-678.46139063593455
 30
0.0
 40
3.0
100
AcDbArc
 50
89.999999999999801
 51
179.9999999999996
  0
ARC
  5
48C
100
AcDbEntity
  8
LAYER032
  6
CONTINUOUS
 62
             232
100
AcDbCircle
 10
1133.0017035408127
 20
-678.46139063593455
 30
0.0
 40
3.0
100
AcDbArc
 50
0.0
 51
89.999999999999801
  0
LINE
  5
48D
100
AcDbEntity
  8
LAYER032
  6
CONTINUOUS
 62
             232
100
AcDbLine
 10
1089.0017035408127
 20
-675.46139063593455
 30
0.0
 11
1097.0017035408127
 21
-675.46139063593455
 31
0.0
  0
LINE
  5
48E
100
AcDbEntity
  8
LAYER032
  6
CONTINUOUS
 62
             232
100
AcDbLine
 10
1125.0017035408127
 20
-675.46139063593455
 30
0.0
 11
1133.0017035408127
 21
-675.46139063593455
 31
0.0
  0
LINE
  5
48F
100
AcDbEntity
  8
LAYER032
  6
CONTINUOUS
 62
             232
100
AcDbLine
 10
1086.0017035408127
 20
-678.46139063593455
 30
0.0
 11
1086.0017035408127
 21
-717.7113906359167
 31
0.0
  0
LINE
  5
490
100
AcDbEntity
  8
LAYER032
  6
CONTINUOUS
 62
             232
100
AcDbLine
 10
1086.0017035408127
 20
-729.7113906359167
 30
0.0
 11
1086.0017035408127
 21
-855.46139063591932
 31
0.0
  0
LINE
  5
491
100
AcDbEntity
  8
LAYER032
  6
CONTINUOUS
 62
             232
100
AcDbLine
 10
1136.0017035408127
 20
-678.46139063593455
 30
0.0
 11
1136.0017035408127
 21
-717.7113906359167
 31
0.0
  0
LINE
  5
492
100
AcDbEntity
  8
LAYER032
  6
CONTINUOUS
 62
             232
100
AcDbLine
 10
1136.0017035408127
 20
-729.7113906359167
 30
0.0
 11
1136.0017035408127
 21
-855.46139063591932
 31
0.0
  0
LINE
  5
493
100
AcDbEntity
  8
LAYER032
  6
DASHED2
 62
             232
100
AcDbLine
 10
1086.0017035408127
 20
-852.26139063591927
 30
0.0
 11
1136.0017035408127
 21
-852.26139063591927
 31
0.0
  0
CIRCLE
  5
494
100
AcDbEntity
  8
LAYER016
  6
CONTINUOUS
 62
              60
100
AcDbCircle
 10
-1533.9982964591873
 20
1034.5386093640811
 30
0.0
 40
3.0
  0
CIRCLE
  5
495
100
AcDbEntity
  8
LAYER016
  6
CONTINUOUS
 62
              60
100
AcDbCircle
 10
-1583.9982964591873
 20
1034.5386093640811
 30
0.0
 40
3.0
  0
CIRCLE
  5
496
100
AcDbEntity
  8
LAYER016
  6
CONTINUOUS
 62
              60
100
AcDbCircle
 10
-1633.9982964591873
 20
1034.5386093640811
 30
0.0
 40
3.0
  0
CIRCLE
  5
497
100
AcDbEntity
  8
LAYER016
  6
CONTINUOUS
 62
              60
100
AcDbCircle
 10
-1583.9982964591873
 20
984.53860936408114
 30
0.0
 40
3.0
  0
CIRCLE
  5
498
100
AcDbEntity
  8
LAYER016
  6
CONTINUOUS
 62
              60
100
AcDbCircle
 10
-1633.9982964591873
 20
984.53860936408114
 30
0.0
 40
3.0
  0
CIRCLE
  5
499
100
AcDbEntity
  8
LAYER016
  6
CONTINUOUS
 62
              60
100
AcDbCircle
 10
-1633.9982964591873
 20
934.53860936408114
 30
0.0
 40
3.0
  0
CIRCLE
  5
49A
100
AcDbEntity
  8
LAYER016
  6
CONTINUOUS
 62
              60
100
AcDbCircle
 10
-1533.9982964591873
 20
84.538609364080855
 30
0.0
 40
3.0
  0
CIRCLE
  5
49B
100
AcDbEntity
  8
LAYER016
  6
CONTINUOUS
 62
              60
100
AcDbCircle
 10
-1583.9982964591873
 20
84.538609364080855
 30
0.0
 40
3.0
  0
CIRCLE
  5
49C
100
AcDbEntity
  8
LAYER016
  6
CONTINUOUS
 62
              60
100
AcDbCircle
 10
-1633.9982964591873
 20
84.538609364080855
 30
0.0
 40
3.0
  0
CIRCLE
  5
49D
100
AcDbEntity
  8
LAYER016
  6
CONTINUOUS
 62
              60
100
AcDbCircle
 10
-1583.9982964591873
 20
134.53860936408091
 30
0.0
 40
3.0
  0
CIRCLE
  5
49E
100
AcDbEntity
  8
LAYER016
  6
CONTINUOUS
 62
              60
100
AcDbCircle
 10
-1633.9982964591873
 20
134.53860936408091
 30
0.0
 40
3.0
  0
CIRCLE
  5
49F
100
AcDbEntity
  8
LAYER016
  6
CONTINUOUS
 62
              60
100
AcDbCircle
 10
-1633.9982964591873
 20
184.53860936408091
 30
0.0
 40
3.0
  0
CIRCLE
  5
4A0
100
AcDbEntity
  8
LAYER016
  6
CONTINUOUS
 62
              60
100
AcDbCircle
 10
-933.99829645918726
 20
559.53860936408091
 30
0.0
 40
3.0
  0
CIRCLE
  5
4A1
100
AcDbEntity
  8
LAYER016
  6
CONTINUOUS
 62
              60
100
AcDbCircle
 10
-983.99829645918726
 20
559.53860936408091
 30
0.0
 40
3.0
  0
CIRCLE
  5
4A2
100
AcDbEntity
  8
LAYER016
  6
CONTINUOUS
 62
              60
100
AcDbCircle
 10
-1033.9982964591873
 20
559.53860936408091
 30
0.0
 40
3.0
  0
CIRCLE
  5
4A3
100
AcDbEntity
  8
LAYER016
  6
CONTINUOUS
 62
              60
100
AcDbCircle
 10
-983.99829645918726
 20
609.53860936408091
 30
0.0
 40
3.0
  0
CIRCLE
  5
4A4
100
AcDbEntity
  8
LAYER016
  6
CONTINUOUS
 62
              60
100
AcDbCircle
 10
-1033.9982964591873
 20
609.53860936408091
 30
0.0
 40
3.0
  0
CIRCLE
  5
4A5
100
AcDbEntity
  8
LAYER016
  6
CONTINUOUS
 62
              60
100
AcDbCircle
 10
-1033.9982964591873
 20
659.53860936408091
 30
0.0
 40
3.0
  0
CIRCLE
  5
4A6
100
AcDbEntity
  8
LAYER016
  6
CONTINUOUS
 62
              60
100
AcDbCircle
 10
-933.99829645918737
 20
509.53860936408103
 30
0.0
 40
3.0
  0
CIRCLE
  5
4A7
100
AcDbEntity
  8
LAYER016
  6
CONTINUOUS
 62
              60
100
AcDbCircle
 10
-983.99829645918737
 20
509.53860936408103
 30
0.0
 40
3.0
  0
CIRCLE
  5
4A8
100
AcDbEntity
  8
LAYER016
  6
CONTINUOUS
 62
              60
100
AcDbCircle
 10
-1033.9982964591873
 20
509.53860936408103
 30
0.0
 40
3.0
  0
CIRCLE
  5
4A9
100
AcDbEntity
  8
LAYER016
  6
CONTINUOUS
 62
              60
100
AcDbCircle
 10
-983.99829645918737
 20
459.53860936408103
 30
0.0
 40
3.0
  0
CIRCLE
  5
4AA
100
AcDbEntity
  8
LAYER016
  6
CONTINUOUS
 62
              60
100
AcDbCircle
 10
-1033.9982964591873
 20
459.53860936408103
 30
0.0
 40
3.0
  0
CIRCLE
  5
4AB
100
AcDbEntity
  8
LAYER016
  6
CONTINUOUS
 62
              60
100
AcDbCircle
 10
-1033.9982964591873
 20
409.53860936408103
 30
0.0
 40
3.0
  0
CIRCLE
  5
4AC
100
AcDbEntity
  8
LAYER016
  6
CONTINUOUS
 62
              60
100
AcDbCircle
 10
-1183.9982964591873
 20
559.53860936408091
 30
0.0
 40
3.0
  0
CIRCLE
  5
4AD
100
AcDbEntity
  8
LAYER016
  6
CONTINUOUS
 62
              60
100
AcDbCircle
 10
-1133.9982964591873
 20
559.53860936408091
 30
0.0
 40
3.0
  0
CIRCLE
  5
4AE
100
AcDbEntity
  8
LAYER016
  6
CONTINUOUS
 62
              60
100
AcDbCircle
 10
-1083.9982964591873
 20
559.53860936408091
 30
0.0
 40
3.0
  0
CIRCLE
  5
4AF
100
AcDbEntity
  8
LAYER016
  6
CONTINUOUS
 62
              60
100
AcDbCircle
 10
-1133.9982964591873
 20
609.53860936408091
 30
0.0
 40
3.0
  0
CIRCLE
  5
4B0
100
AcDbEntity
  8
LAYER016
  6
CONTINUOUS
 62
              60
100
AcDbCircle
 10
-1083.9982964591873
 20
609.53860936408091
 30
0.0
 40
3.0
  0
CIRCLE
  5
4B1
100
AcDbEntity
  8
LAYER016
  6
CONTINUOUS
 62
              60
100
AcDbCircle
 10
-1083.9982964591873
 20
659.53860936408091
 30
0.0
 40
3.0
  0
CIRCLE
  5
4B2
100
AcDbEntity
  8
LAYER016
  6
CONTINUOUS
 62
              60
100
AcDbCircle
 10
-1183.9982964591873
 20
509.53860936408103
 30
0.0
 40
3.0
  0
CIRCLE
  5
4B3
100
AcDbEntity
  8
LAYER016
  6
CONTINUOUS
 62
              60
100
AcDbCircle
 10
-1133.9982964591873
 20
509.53860936408103
 30
0.0
 40
3.0
  0
CIRCLE
  5
4B4
100
AcDbEntity
  8
LAYER016
  6
CONTINUOUS
 62
              60
100
AcDbCircle
 10
-1083.9982964591873
 20
509.53860936408103
 30
0.0
 40
3.0
  0
CIRCLE
  5
4B5
100
AcDbEntity
  8
LAYER016
  6
CONTINUOUS
 62
              60
100
AcDbCircle
 10
-1133.9982964591873
 20
459.53860936408103
 30
0.0
 40
3.0
  0
CIRCLE
  5
4B6
100
AcDbEntity
  8
LAYER016
  6
CONTINUOUS
 62
              60
100
AcDbCircle
 10
-1083.9982964591873
 20
459.53860936408103
 30
0.0
 40
3.0
  0
CIRCLE
  5
4B7
100
AcDbEntity
  8
LAYER016
  6
CONTINUOUS
 62
              60
100
AcDbCircle
 10
-1083.9982964591873
 20
409.53860936408103
 30
0.0
 40
3.0
  0
CIRCLE
  5
4B8
100
AcDbEntity
  8
LAYER016
  6
CONTINUOUS
 62
              60
100
AcDbCircle
 10
-583.99829645918726
 20
1034.5386093640811
 30
0.0
 40
3.0
  0
CIRCLE
  5
4B9
100
AcDbEntity
  8
LAYER016
  6
CONTINUOUS
 62
              60
100
AcDbCircle
 10
-533.99829645918726
 20
1034.5386093640811
 30
0.0
 40
3.0
  0
CIRCLE
  5
4BA
100
AcDbEntity
  8
LAYER016
  6
CONTINUOUS
 62
              60
100
AcDbCircle
 10
-483.99829645918726
 20
1034.5386093640811
 30
0.0
 40
3.0
  0
CIRCLE
  5
4BB
100
AcDbEntity
  8
LAYER016
  6
CONTINUOUS
 62
              60
100
AcDbCircle
 10
-533.99829645918726
 20
984.53860936408114
 30
0.0
 40
3.0
  0
CIRCLE
  5
4BC
100
AcDbEntity
  8
LAYER016
  6
CONTINUOUS
 62
              60
100
AcDbCircle
 10
-483.99829645918726
 20
984.53860936408114
 30
0.0
 40
3.0
  0
CIRCLE
  5
4BD
100
AcDbEntity
  8
LAYER016
  6
CONTINUOUS
 62
              60
100
AcDbCircle
 10
-483.99829645918726
 20
934.53860936408114
 30
0.0
 40
3.0
  0
CIRCLE
  5
4BE
100
AcDbEntity
  8
LAYER016
  6
CONTINUOUS
 62
              60
100
AcDbCircle
 10
-583.99829645918726
 20
84.538609364080855
 30
0.0
 40
3.0
  0
CIRCLE
  5
4BF
100
AcDbEntity
  8
LAYER016
  6
CONTINUOUS
 62
              60
100
AcDbCircle
 10
-533.99829645918726
 20
84.538609364080855
 30
0.0
 40
3.0
  0
CIRCLE
  5
4C0
100
AcDbEntity
  8
LAYER016
  6
CONTINUOUS
 62
              60
100
AcDbCircle
 10
-483.99829645918726
 20
84.538609364080855
 30
0.0
 40
3.0
  0
CIRCLE
  5
4C1
100
AcDbEntity
  8
LAYER016
  6
CONTINUOUS
 62
              60
100
AcDbCircle
 10
-533.99829645918726
 20
134.53860936408091
 30
0.0
 40
3.0
  0
CIRCLE
  5
4C2
100
AcDbEntity
  8
LAYER016
  6
CONTINUOUS
 62
              60
100
AcDbCircle
 10
-483.99829645918726
 20
134.53860936408091
 30
0.0
 40
3.0
  0
CIRCLE
  5
4C3
100
AcDbEntity
  8
LAYER016
  6
CONTINUOUS
 62
              60
100
AcDbCircle
 10
-483.99829645918726
 20
184.53860936408091
 30
0.0
 40
3.0
  0
INSERT
  5
4C4
100
AcDbEntity
  8
LAYER064
  6
CONTINUOUS
100
AcDbBlockReference
  2
GROUP_1
 10
0.0
 20
0.0
 30
0.0
  0
INSERT
  5
4C5
100
AcDbEntity
  8
LAYER064
  6
CONTINUOUS
100
AcDbBlockReference
  2
GROUP_2
 10
0.0
 20
0.0
 30
0.0
  0
INSERT
  5
4C6
100
AcDbEntity
  8
LAYER064
  6
CONTINUOUS
100
AcDbBlockReference
  2
GROUP_3
 10
0.0
 20
0.0
 30
0.0
  0
INSERT
  5
4C7
100
AcDbEntity
  8
LAYER064
  6
CONTINUOUS
100
AcDbBlockReference
  2
GROUP_4
 10
0.0
 20
0.0
 30
0.0
  0
INSERT
  5
4C8
100
AcDbEntity
  8
LAYER064
  6
CONTINUOUS
100
AcDbBlockReference
  2
GROUP_5
 10
0.0
 20
0.0
 30
0.0
  0
INSERT
  5
4C9
100
AcDbEntity
  8
LAYER064
  6
CONTINUOUS
100
AcDbBlockReference
  2
GROUP_6
 10
0.0
 20
0.0
 30
0.0
  0
INSERT
  5
4CA
100
AcDbEntity
  8
LAYER064
  6
CONTINUOUS
100
AcDbBlockReference
  2
GROUP_7
 10
0.0
 20
0.0
 30
0.0
  0
INSERT
  5
4CB
100
AcDbEntity
  8
LAYER064
  6
CONTINUOUS
100
AcDbBlockReference
  2
GROUP_8
 10
0.0
 20
0.0
 30
0.0
  0
INSERT
  5
4CC
100
AcDbEntity
  8
LAYER064
  6
CONTINUOUS
100
AcDbBlockReference
  2
GROUP_20
 10
0.0
 20
0.0
 30
0.0
  0
INSERT
  5
4CD
100
AcDbEntity
  8
LAYER064
  6
CONTINUOUS
100
AcDbBlockReference
  2
GROUP_21
 10
0.0
 20
0.0
 30
0.0
  0
INSERT
  5
4CE
100
AcDbEntity
  8
LAYER064
  6
CONTINUOUS
100
AcDbBlockReference
  2
GROUP_22
 10
0.0
 20
0.0
 30
0.0
  0
INSERT
  5
4CF
100
AcDbEntity
  8
LAYER064
  6
CONTINUOUS
100
AcDbBlockReference
  2
GROUP_23
 10
0.0
 20
0.0
 30
0.0
  0
INSERT
  5
4D0
100
AcDbEntity
  8
LAYER064
  6
CONTINUOUS
100
AcDbBlockReference
  2
GROUP_24
 10
0.0
 20
0.0
 30
0.0
  0
INSERT
  5
4D1
100
AcDbEntity
  8
LAYER064
  6
CONTINUOUS
100
AcDbBlockReference
  2
GROUP_25
 10
0.0
 20
0.0
 30
0.0
  0
INSERT
  5
4D2
100
AcDbEntity
  8
LAYER064
  6
CONTINUOUS
100
AcDbBlockReference
  2
GROUP_26
 10
0.0
 20
0.0
 30
0.0
  0
INSERT
  5
4D3
100
AcDbEntity
  8
LAYER064
  6
CONTINUOUS
100
AcDbBlockReference
  2
GROUP_27
 10
0.0
 20
0.0
 30
0.0
  0
INSERT
  5
4D4
100
AcDbEntity
  8
LAYER064
  6
CONTINUOUS
100
AcDbBlockReference
  2
GROUP_28
 10
0.0
 20
0.0
 30
0.0
  0
INSERT
  5
4D5
100
AcDbEntity
  8
LAYER064
  6
CONTINUOUS
100
AcDbBlockReference
  2
GROUP_29
 10
0.0
 20
0.0
 30
0.0
  0
INSERT
  5
4D6
100
AcDbEntity
  8
0
  6
CONTINUOUS
100
AcDbBlockReference
  2
GROUP_9
 10
0.0
 20
0.0
 30
0.0
  0
INSERT
  5
4D7
100
AcDbEntity
  8
0
  6
CONTINUOUS
100
AcDbBlockReference
  2
GROUP_10
 10
0.0
 20
0.0
 30
0.0
  0
INSERT
  5
4D8
100
AcDbEntity
  8
0
  6
CONTINUOUS
100
AcDbBlockReference
  2
GROUP_11
 10
0.0
 20
0.0
 30
0.0
  0
INSERT
  5
4D9
100
AcDbEntity
  8
0
  6
CONTINUOUS
100
AcDbBlockReference
  2
GROUP_12
 10
0.0
 20
0.0
 30
0.0
  0
INSERT
  5
4DA
100
AcDbEntity
  8
0
  6
CONTINUOUS
100
AcDbBlockReference
  2
GROUP_13
 10
0.0
 20
0.0
 30
0.0
  0
INSERT
  5
4DB
100
AcDbEntity
  8
0
  6
CONTINUOUS
100
AcDbBlockReference
  2
GROUP_14
 10
0.0
 20
0.0
 30
0.0
  0
INSERT
  5
4DC
100
AcDbEntity
  8
0
  6
CONTINUOUS
100
AcDbBlockReference
  2
GROUP_15
 10
0.0
 20
0.0
 30
0.0
  0
INSERT
  5
4DD
100
AcDbEntity
  8
0
  6
CONTINUOUS
100
AcDbBlockReference
  2
GROUP_16
 10
0.0
 20
0.0
 30
0.0
  0
INSERT
  5
4DE
100
AcDbEntity
  8
0
  6
CONTINUOUS
100
AcDbBlockReference
  2
GROUP_17
 10
0.0
 20
0.0
 30
0.0
  0
INSERT
  5
4DF
100
AcDbEntity
  8
0
  6
CONTINUOUS
100
AcDbBlockReference
  2
GROUP_18
 10
0.0
 20
0.0
 30
0.0
  0
INSERT
  5
4E0
100
AcDbEntity
  8
0
  6
CONTINUOUS
100
AcDbBlockReference
  2
GROUP_19
 10
0.0
 20
0.0
 30
0.0
  0
INSERT
  5
4E1
100
AcDbEntity
  8
0
  6
CONTINUOUS
100
AcDbBlockReference
  2
GROUP_30
 10
0.0
 20
0.0
 30
0.0
  0
ENDSEC
  0
SECTION
  2
OBJECTS
  0
DICTIONARY
  5
19
100
AcDbDictionary
  3
ACAD_GROUP
350
1A
  3
ACAD_MLINESTYLE
350
1B
  0
DICTIONARY
  5
1A
102
{ACAD_REACTORS
330
19
102
}
100
AcDbDictionary
  0
DICTIONARY
  5
1B
102
{ACAD_REACTORS
330
19
102
}
100
AcDbDictionary
  3
STANDARD
350
1C
  0
MLINESTYLE
  5
1C
102
{ACAD_REACTORS
330
1B
102
}
100
AcDbMlineStyle
  2
STANDARD
 70
               0
  3

 62
               0
 51
90.0
 52
90.0
 71
               2
 49
0.5
 62
             256
  6
BYLAYER
 49
-0.5
 62
             256
  6
BYLAYER
  0
ENDSEC
  0
EOF
